Oops, an error
Loading. Please wait.

Our Window Tab

version 1
version 1

Whole song

  • This version takes elements from the previous two ... Show more
19 views 3 this week
no commentswrite comment
1 2 3 4 5
x 3
add to favorites
launch autoscroll
font size
0
reset
how to read this tab
guitar tuner
Autoscroll
slow
fast
+/-
esc
set tempo
stop
Help us to improve Ultimate-Guitar.com Take our survey!
×
Author
Tuning
D A D G B E
About this tab version
This version takes elements from the previous two and expounds on them to create one unified tab. Was this info helpful? Yes No
Drop D
Capo 1st Fret

[Intro 1]
Played on Piano
At one point the picking speeds up for a bar, so pay attention to the timing

e|-------------------------------------------------------|
B|-------------------------------------------------------|
G|---------2~------------2~------------------------------|
D|----------------------------- after a while -----------|
A|-----4-------------4-----------------------------------|
D|-2-------------0------------------------------0~~~~~~--|


[Intro 2]
Also on Piano, and pay attention to timing

e|--------------------------------0----------------------|
B|----2--2-2--0-----------2--2-2-----2--0--2-0-----------|
G|---------------2-----------------------------2---------|
D|------------------2~~----------------------------4~~~--|
A|-------------------------------------------------------|
D|-------------------------------------------------------|


[Verse 1]
Pluck the strings on this part if you want since it's played on piano

           A                         Asus4
Well it's four in the morning, things are getting heavy,

       A                                Asus4
And we both know that it's over, but we both weren't ready

          A                               Asus4
And you're talking like a stranger, so I don't know what to do

        A                        Asus4 
And I'm callous and I'm cruel to everyone but you


[Chorus]
Pluck here too if you want
It also sounds good when you open the D string on Asus4

        A                         Asus4
And the stars shining through our window

        A                         Asus4
And the stars shining through our window

        A                         Asus4
And it's been awhile since I stared at the stars

                 A                Asus4               Asus4
Yeah, it's been awhile, since I stared at the stars


[Verse 2]
You can strum here since the guitar comes in at this verse

 A                 Asus4
Spring can be the cruelest of months

    A                                   Asus4
But bringing in your life, yeah, we're promising so much

         A                                              Asus4
Like the pledge that you gave when you said that you'd always love me

        A                                  Asus4
But we both know by autumn you're like the color of leaves


[Chorus]
It also sounds good when you open the D string on Asus4

        A                         Asus4
And the stars shining through our window

        A                         Asus4
And the stars shining through our window

        A                         Asus4
And it's been awhile since I stared at the stars

                 A                Asus4               Asus4
Yeah, it's been awhile, since I stared at the stars


[Bridge]
Okay here it gets a little tricky I will have the tab first then the lyrics

e|--------0~~--------------------------|
B|-------------------------------------|
G|-------------------------------------|
D|------------------------------2------|
A|----2~~------2{p}0~~~~~~---------0---|
D|-2~~---------------------------------|

Well I don't think that it's the end
But I know we can't keep going
Well I don't think that it's the end
But I know we can't keep going


[Ending]
This part confounds me, but I'm pretty sure this is it
Strum the chords

   Esus      A
e|--4(0)-------------------0----------------------------------|
B|--5--------2------------------------------------------------|
G|--4--------2------------------------------------------------|
D|--2--------2---------------------------2--------------------|
A|-----------0---------2-------2(p)0~~~~~---0-----------------|
D|------------------2---------------------------2~~~~~~~~~~~~-|

'Cause blue skies are coming but I know that it's hard


************************************

| (n) Ghost note
| p   Pull-off
| ~   Vibrato

************************************
Suggest correction
Give kudos to tab author, rate the tab!
1 2 3 4 5
comments
print report bad tab
guest
You may want to rate the tab now too:
select rating
Wanna post a correction for this tab? Suggest correction