Oops, an error
Loading. Please wait.

Wild Thing Chords

28 views 1 this week
no commentswrite comment
1 2 3 4 5
3 more votes to show rating
add to favorites
launch autoscroll
font size
0
reset
transpose
0
reset
display chords
guitar tuner
Autoscroll
slow
fast
+/-
esc
set tempo
stop
Help us to improve Ultimate-Guitar.com Take our survey!
×
Author
Difficulty
intermediate
About this tab version
Added better chord spacing and tabs. Was this info helpful? Yes No
Wild Thing || Noah And The Whale
----------------------
Standard tuning
E   (022100)
A   (002220)
C#m (446654)
B   (224442)
A   (002220)
F#m (244222)

[Intro]

Guitar 2
e:-------------------------------------------------------------|
B:-------------------------------------------------------------|
G:-------------------------------------------------------------|
D:6-9-6-9-6-9---4-6-4---------6-9-6-9-9s11s9---4-6-4-----------|
A:---------------------4-4-7-----------------------------4-4-7-|
E:-------------------------------------------------------------|

                                                       E
e:-----------------------------------------------------0--|
B:-----------------------------------------------------0--|
G:-----------------------------------------------------1--|
D:-----------------------------------------------------2--|
A:7-7-6-4-2----7-7-6-4--0----7-7-6-4-2----7-7-6-4--0---2--|
E:-----------------------------------------------------0--|

[Verse 1]
                                 A
Time can make more rubble out of dreams than anything,
E                                   A
In a quiet neighborhood where she's living without wings,
E                                   A
There's eye behind the curtains and ears below the floor,
E                                              A
There's cracks inside the ceiling and there's shadows at the door,
C#m                 B               A
Her boredom stirs a rage inside her soul,
C#m                B                 A
The razor reaches out and takes control

[Chorus]
             E           A
Baby she's a wild thing
             E           A
Baby she's a wild thing

Baby she's a wild thing
   E       A
e:-0-------0-|
B:-0-------2-|
G:-1--1----2-|
D:-2----4--2-|
A:-2-------0-|
E:-0-------0-|

Baby she's a wild thing
   E       A
e:-0-------0-|
B:-0-------2-|
G:-1--1----2-|
D:-2----4--2-|
A:-2-------0-|
E:-0-------0-|


[Instrumental]
                                                                           E
e:-------------------------------------------------------------------------0--|
B:-------------------------------------------------------------------------0--|
G:-------------------------------------------------------------------------1--|
D:6-9-6-9-6-9---4-6-4---------6-9-6-9-9s11s9---4-6-4-----------------------2--|
A:---------------------4-4-7-----------------------------4-4-7---7-7-6-4---2--|
E:-------------------------------------------------------------------------0--|


[Verse 2]
                    A
Nine days out alone sleeping in the dirt,
E                             A
She walks back into town with blood stains on her shirt,
E                          A
Everyone has questions but no one wants to know,
E                                A
How far the anger in someone can really make them go,
C#m                  B                 A
Her tangled hair and mud stains on her knees,
C#m              B           A
Bruised ribs and rips on the side of her jeans,

[Chorus]
             E           A
Baby she's a wild thing
             E           A
Baby she's a wild thing

Baby she's a wild thing
   E       A
e:-0-------0-|
B:-0-------2-|
G:-1--1----2-|
D:-2----4--2-|
A:-2-------0-|
E:-0-------0-|

Baby she's a wild thing
   E       A
e:-0-------0-|
B:-0-------2-|
G:-1--1----2-|
D:-2----4--2-|
A:-2-------0-|
E:-0-------0-|



[Bridge]
Guitar 1 (on each line)
e:17-16-----17-16-|
B:----------------|
G:----------------|
D:----------------|
A:----------------|
E:----------------|
       F#m                   A
Well I used to be a citizen in this town,
       E                         B
Til my teeth turned grey and my hair fell out,
       F#m                              A
I'm a symbol to some people they don't wanna know,
      E                                    B
But a girl looking for trouble said she'd give me a go

      F#m                            A
While everybody's sleeping in this town at night,
          E                           B
From the crooked clock tower to the borderline,
    F#m                        A
And night star static in the winter breeze,
      E                                 B
She's lying in the moonlight with her hands between my knees

              F#m
She said it's alright,
              A         E
Well it's alright by me
              F#m
She said it's alright,
               A        E
Well it's alright by me


[Chorus]
             E           A
Baby she's a wild thing
             E           A
Baby she's a wild thing

Baby she's a wild thing
   E       A
e:-0-------0-|
B:-0-------2-|
G:-1--1----2-|
D:-2----4--2-|
A:-2-------0-|
E:-0-------0-|

Baby she's a wild thing
   E       A
e:-0-------0-|
B:-0-------2-|
G:-1--1----2-|
D:-2----4--2-|
A:-2-------0-|
E:-0-------0-|


[Outro]
e:--------------------------------------------------------------------------|
B:--------------------------------------------------------------------------|
G:--------------------------------------------------------------------------|
D:6-9-6-9-6-9---4-6-4---------6-9-6-9-9s11s9---4-6-4------------------------|
A:---------------------4-4-7-----------------------------4-4-7---7-7-6-4--2-|
E:--------------------------------------------------------------------------|
Suggest correction
Give kudos to tab author, rate the tab!
1 2 3 4 5
comments
print report bad tab
guest
You may want to rate the tab now too:
select rating
Wanna post a correction for this tab? Suggest correction