Oops, an error
Loading. Please wait.

Isaiah chords

version 2
version 2

Whole song

598 views 1 this week
no commentswrite comment
1 2 3 4 5
3 more votes to show rating
add to favorites
×
Save as Personal and add changes to this tab that will be seen only by you. Learn more ›
×
You can save this tab as Personal to edit and correct it or add notes. All changes will be seen only by you. Learn more »
launch autoscroll
font size
0
reset
transpose
0
reset
display chords
guitar tuner
edit
Autoscroll
slow
fast
+/-
esc
set tempo
stop
Strumming
There is no strumming pattern for this song yet. and get +5 IQ
-------------------------------------------------------------------------------
                             ISAIAH - Noah Gundersen
-------------------------------------------------------------------------------
Tabbed by: Charlene E
NO CAPO

Tuning: DADGBe

      D       A      G      Bm                   
e|---------------------------------------------------------------------------|
B|----2-------2------3------3------------------------------------------------|
G|----3-------2------0------2------------------------------------------------|
D|----0-------2-------------0------------------------------------------------|
A|------------0------5------2------------------------------------------------|
D|----0--------------5-------------------------------------------------------|

Picking Pattern: *Chords do not mean strum, just showing you how each chord is plucked*

      D=            A=              G=            Bm=
e|---------------------------------------------------------------------------|
B|----2-------X-----2--------X-----3--------X-----3--------X-----------------|
G|----3--------X----2---------X----0---------X----2---------X----------------|
D|----0----X--------2-----X-----------------------0-----X--------------------|
A|------------------0--X-----------5-----X--------2--X-----------------------|
D|----0--X-------------------------5--X--------------------------------------|

Intro:
D

Verse:
D                         A         D
Crawl into my skin, I'll crawl into yours 
A                          D          G
Teach each other what our bodies are for 
D                          A            D
Learn how to sink and you learn how to swim 
A                          D            G
Learn how to lose and you learn how to win 

    D                        A       D
So buy me a drink, and I'll buy you a drink 
    A                            D                 G
You don't seem to care what your boyfriend would think 
          D                      A            D
With the prophet Isaiah on the crook of your arm 
         A                       D          G      
Saying, I will protect you from all earthly harm 


Chorus:
          G              Bm   
Fear thou not, fear thou not 
   G               D         A          G
My right hand will hold you, fear thou not 


Verse: 
D                    A           D     
I call you trouble, you call me friend 
      A                    D      G
And I had no intention of losing again
          D                                 A     D
I'm the reason you're guilty, I'm the other man's arms 
       A                        D           G
Honey, what am I doing, how did I get this far 


Chorus:
          G              Bm   
Fear thou not, fear thou not 
   G               D         A          G
My right hand will hold you, fear thou not 


Fear thou not, fear thou not 
   G               D         A          G
My right hand will hold you, fear thou not 


End on D
Suggest correction
Creating personal tab
Creating personal tab
You can edit any tab online and save it as your Personal.

You can edit, replace or remove any tab part or add personal notes – all changes will be seen only by you.

Personal tabs can be accessed anytime from any device, even offline.
Learn more »
Give kudos to tab author, rate the tab!
1 2 3 4 5
comments
print report bad tab
guest
You may want to rate the tab now too:
select rating
Wanna post a correction for this tab? Suggest correction