Oops, an error
Loading. Please wait.

Winter Tab

version 1
version 1

Whole song

3,593 views 6 this week
no commentswrite comment
1 2 3 4 5
please rate
add to favorites
launch autoscroll
font size
0
reset
how to read this tab
guitar tuner
Autoscroll
slow
fast
+/-
esc
set tempo
stop
Help us to improve Ultimate-Guitar.com Take our survey!
×
Author
Noah Gundersen - Winter

Tuning: Standard
Tabbed By: Ramzi Bahu.


                         Intro/Verse
 E|-------|------------0----------0-----------------------------------------|
 B|-------|-------0--0--0----------0----------------------0-----------------|
 G|-------|-------9--9---9-----9--------1h2-2--1--------2-------------------|
 D|-----2-|---11-----6------------------2---2--2----------------------------|
 A|-2h4---|---12-------------6----------0------2----------------------------|
 E|-------|----------------------------------------0h2----------------------|

              "Oh come colder weather"
 E|-----------------0--------0-----------------------------|
 B|--------0---------0------0-0----------------------------|
 G|--2------2---1------------------------------------------|
 D|-----2---------2------2---------------------------------|
 A|--0----------2--------0-----2---------------------------|
 E|--------------------------------------------------------|

Verse

                "But maybe I said maybe.."
 E|-----------------0--------------------------------------|
 B|--------0---------0-------------------------------------|
 G|--2------2---1------------------------------------------|
 D|-----2---------2----------------------------------------|
 A|--0----------2------------------------------------------|
 E|--------------------------------------------------------|


      "Because I've been a mayday son.."        Or you could strum the chords
 E|-------------------------------------------|--0----0---0-----------------|
 B|----0---------0---------0---------0-----0--|--0----0---0-----------------|
 G|---2--2------1--1------2-2-------2-2----2--|--2----1---2-----------------|
 D|--2----2----2----2----2---2-----2---2---2--|--2----2---2-----------------|
 A|-0---------2----------------------------x--|--0----2---x-----------------|
 E|---------------------2--------2---------2--|-----------2-----------------|


Verse


      "All the chaos & the ticking clock.."
 E|-0----0-------------------------------------------------|
 B|-0----0-------------------------------------------------|
 G|-2----1-------------------------------------------------|
 D|-2----2-------------------------------------------------|
 A|-0----2-------------------------------------------------|
 E|--------------------------------------------------------|

Same chords above when the violin kicks just down-up-down strumming

                    Continued
 E|--------------------------------------------------------|
 B|----0-------0-------0--------0--------------------------|
 G|---2-2-----4-4-----6-6------9-9-------------------------|
 D|--------------------------------------------------------|
 A|--------------------------------------------------------|
 E|--2------4-------7-------9------------------------------|

    "We make such different people.."            End
 E|--0----0-------------------------------------|--0-------|
 B|--0----0-------------------------above-tab---|--0-------|
 G|--2----1---4-----------------------played----|--1-------|
 D|--2----2---4--4---------------------here-----|--2-------|
 A|--0----2---2--4------------------------------|--2-------|
 E|--------------2------------------------------|----------|
Suggest correction new What's this?
You can suggest a correction to this tab. Community and Mods will review your correction and vote to approve or reject it.
comments
We did not receive enough feedback on this tab! Please rate:
print report bad tab
1 2 3 4 5
guest
You may want to rate the tab now too:
select rating
Please do not post tabs as comments. Select "correction" instead!