Oops, an error
Loading. Please wait.

Mae Sariang tab

10 views 1 this week
no commentswrite comment
1 2 3 4 5
3 more votes to show rating
add to favorites
×
Save as Personal and add changes to this tab that will be seen only by you. Learn more ›
×
You can save this tab as Personal to edit and correct it or add notes. All changes will be seen only by you. Learn more »
launch autoscroll
font size
0
reset
how to read this tab
guitar tuner
edit
Autoscroll
slow
fast
+/-
esc
set tempo
stop
Author
Difficulty
Yes, A# and Bb are the same thing but I wanted to differentiate between the two because they are picked 
differently. Also, in the second verse and the outro of the song, only half a section of Bb is played 
before switching to A#m.

FOR K.


  A#
e|-8------8--8------8--8------8--8------8-|
B|---6---------6---------6---------6------|
G|-----7---------7---------7---------7----|
D|-8------8--8------8--8------8--8------8-|
A|----------------------------------------|
E|----------------------------------------|

  F
e|-8------8--8------8--8------8--8------8-|
B|---6---------6---------6---------6------|
G|-----7---------7---------7---------7----|
D|----------------------------------------|
A|-8------8--8------8--8------8--8------8-|
E|----------------------------------------|

  D#                                      
e|-8------8--8------8--8------8--8------8-|
B|---6---------6---------6---------6------|
G|-----7---------7---------7---------7----|
D|----------------------------------------|
A|-6------6--6------6--6------6--6------6-|
E|----------------------------------------|

  Bb
e|-8------8--8------8--8------8--8------x-|
B|---6---------6---------6---------6----x-|
G|-----7---------7---------7---------7--x-|
D|--------------------------------------x-|
A|--------------------------------------x-|
E|-6------6--6------6--6------6--6------x-|

  G#                                      
e|-6------6--6------6--6------6--6------6-|
B|---4---------4---------4---------4------|
G|-----5---------5---------5---------5----|
D|----------------------------------------|
A|----------------------------------------|
E|-4------4--4------4--4------4--4------4-|

  C#m
e|-6------6--6------6--6------6--6------6-|
B|---5---------5---------5---------5------|
G|-----6---------6---------6---------6----|
D|----------------------------------------|
A|----------------------------------------|
E|-4------4--4------4--4------4--4------4-|

  Bm                                      
e|-4------4--4------4--4------4--4------4-|
B|---3---------3---------3---------3------|
G|-----4---------4---------4---------4----|
D|----------------------------------------|
A|----------------------------------------|
E|-2------2--2------2--2------2--2------2-|

  F#
e|-4------4--4------4--4------4--4------4-|
B|---2---------2---------2---------2------|
G|-----3---------3---------3---------3----|
D|----------------------------------------|
A|----------------------------------------|
E|-2------2--2------2--2------2--2------2-|

  A#m
e|-8------8--8------8--8------8--8------8-|
B|---7---------7---------7---------7------|
G|-----8---------8---------8---------8----|
D|----------------------------------------|
A|----------------------------------------|
E|-6------6--6------6--6------6--6------6-|


[Verse 1]

A#                                                 F
  As nine o'clock grew closer the talk began to fade
                                                 D#
  thirty hours in transit have worn our minds away 
                                       Bb
  terminal to terminal, highway to highway
A#                                                  F
  weary bodies stretched across each trying to find sleep
                                                       D#
  the nights not over yet but there's nothing I can keep
                                     Bb
  weaving in and out of consciousness I guess I wonder what this is 
G#
  it didn't matter anyway
C#m
  I'll see you another day
Bm
  so long it's been fun
F#
  okay that's it I'm done


[Instrumental]

A#   F

D#   Bb


[Verse 2]

A#
  I guess I'm just an ash tray in the end 
F
  taking things to borrow steal or lend
D#
  till I get used up and put away
Bb                                      A#m
  collecting dust on the shelf till the end of my days
G#
  it didn't matter anyway
C#m
  I'll see you soon another day
Bm
  so long it's been fun
F#
  okay thats it now I'm done

A#   F

D#   Bb A#m



************************************

| x  Dead note

************************************

            
            
Suggest correction
Creating personal tab
Creating personal tab
You can edit any tab online and save it as your Personal.

You can edit, replace or remove any tab part or add personal notes – all changes will be seen only by you.

Personal tabs can be accessed anytime from any device, even offline.
Learn more »
Give kudos to tab author, rate the tab!
1 2 3 4 5
comments
print report bad tab
guest
You may want to rate the tab now too:
select rating
Wanna post a correction for this tab? Suggest correction