Oops, an error
Loading. Please wait.

Aeris Theme Tab

version 2
version 2

Whole song

19,940 views 93 this week
1 commentread comment
1 2 3 4 5
x 12
add to favorites
launch autoscroll
font size
0
reset
how to read this tab
guitar tuner
Autoscroll
slow
fast
+/-
esc
set tempo
stop
Help us to improve Ultimate-Guitar.com Take our survey!
×
Author
Difficulty
intermediate
Tabbed by:antagony98
Email:braeden.claringbull@hotmail.com

Tuning: Standard (EADGBe)

Listen to the song to get the timing, i think that it's 100% right, but if not, email 
Im also working on a duet version of this song.

e|-------(0)-------------------(0)----0------------------------------------------------|
B|--------3------1--------------3--2----3--0--2----------------------------------------|
G|-----2-----------2----------2------------------2~------------------------------------|
D|--4----------------2~----4---------------------------2~------------------------------|
A|-------------------------------------------------------------------------------------|
E|-------------------------------------------------------------------------------------|

e|-----------------------------------------------|
B|--------3-----1--------------------------------|
G|-----2----------2------------------------------|
D|--4----------------2------0h2p0---2/3-2-0-2-0--|
A|-----------------------------------------------|
E|-----------------------------------------------|

e|-------------------------------------------------------------------------------------|
B|--------------------------0--2--3--0-------------------------------------------------|
G|------------------0--2---------------0--2h4p2----------------------------------------|
D|--0--2--4~-----4---------------------------------------------------------------------|
A|-------------------------------------------------------------------------------------|
E|-------------------------------------------------------------------------------------|

e|---------------------------------------------------------------------------------|
B|-----------------------------------------------0---2--3--------------------------|
G|---2--------------4--2----------2------------------------------------------------|
D|-----4------------------0----------4---------------------------------------------|
A|-------4------------------------------4------------------------------------------|
E|---------------------------------------------------------------------------------|

e|-----------------------------------2-2-------------------------------------------------|
B|--3--2--0--------------3--2--0--2------------------------------------------------------|
G|-----------2---------------------------------------------------------------------------|
D|--------------4------------------------------------------------------------------------|
A|---------------------------------------------------------------------------------------|
E|---------------------------------------------------------------------------------------|

e|-----------------------------------------------------|
B|-3--2--0---------------------------------------------|
G|----------2------------------------------------------|
D|-------------2----2--4--5--4--0-------5--4--0--2--0--|
A|-----------------------------------------------------|
E|-----------------------------------------------------|

e|------------------------------------------------------------|
B|-3--2--0--------------------------------------12(harmonic)--|
G|----------2-----------------------------12(harmonic)--------|
D|-------------2------2--4--5--4--2--0~-----------------------|
A|------------------------------------------------------------|
E|------------------------------------------------------------|

Play that 2x then go out with this:
e|---------------------------------0----------------------------------------------------|
B|------3---1-----------------3--2----3--0--2-------------------------------------------|
G|----2-------2-----------2--------------------2----------------------------------------|
D|--4-----------2------4--------------------------2~~~~~--------------------------------|
A|--------------------------------------------------------------------------------------|
E|--------------------------------------------------------------------------------------|
Suggest correction
comments
print report bad tab
1 comment total.
+2 reply
carlo.jimenez.1 10 Apr 07, 2014 11:45 PM

It's simple, easy to learn, sounds 100% like Aeris' theme... Now I have a reason to cry while playing the guitar... THANKS!!! :D

guest
You may want to rate the tab now too:
select rating
Wanna post a correction for this tab? Suggest correction