Oops, an error
Loading. Please wait.

Aeriths Theme Tab

version 1
version 1

Whole song

Interactive

5,901 views 1 this week
no commentswrite comment
1 2 3 4 5
please rate
add to favorites
launch autoscroll
font size
0
reset
how to read this tab
guitar tuner
Autoscroll
slow
fast
+/-
esc
set tempo
stop
Help us to improve Ultimate-Guitar.com Take our survey!
×
Author
Donnyp 50
Also you can start with This if you want
E||--10-----9--------------|--10-----9------9-1414|
B||------------12--10------|------------12--------|
G||------------------------|----------------------|
D||------------------------|----------------------|
A||------------------------|----------------------|
E||------------------------|----------------------|

E||--10-----9--------------|----------------------|
B||------------12--10------|--------------------12|
G||---------------------9--|--9--11--12--11--9--12|
D||------------------------|--------------------12|
A||------------------------|----------------------|
E||------------------------|----------------------|

--------------------------------------------------

E||----------10------------|--8-------------------|
B||------10----------------|-----10---------------|
G||--11--------------------|---------9------------|
D||------------------------|----------------------|
A||------------------------|----------------------|
E||------------------------|----------------------|

                                                                                
----------10--9--12--10------9--|---------------------|----------10------------|
------10-----------------12-----|--10-----------------|------10----------------|
--11----------------------------|------------9--------|--11--------------------|
--------------------------------|---------------------|------------------------|
--------------------------------|---------------------|------------------------|
--------------------------------|---------------------|------------------------|
                                                                                
--8---------------------|------------------------------|-----------------------|
-----10-----------------|------------------------------|-----------------------|
---------9----------7h9h|--7----10-9----9-------10--9--|--------------------9--|
------------------------|------------12---12-----------|--12------------12-----|
------------------------|------------------------------|-----------------------|
------------------------|------------------------------|-----------------------|
                                                                          
------------------------|--------------------9--|--10--------------------|
------------------------|--10------------12-----|--12----12--------------|
--11------------11--12--|--11-------------------|--12--------------12----|
--12------------12--12--|--11-------------------|--12--------------------|
------------------------|-----------------------|------------------------|
------------------------|-----------------------|------------------------|
                                                                               
----------------------------|------------------------|------------------------|
--10--12h10---------10------|----------------12--10--|----------------10------|
--11--------------------11--|------------------------|--------------------11--|
--12------------------------|--11--------------------|--12--------------------|
----------------------------|------------------------|------------------------|
----------------------------|------------------------|------------------------|
                                                        
----------------------------|--10----------10--9-------|
------------------10--12-14-|--12----------12--10--12--|
------------11--------------|--12------------------12--|
--11------------------------|--12----------------------|
----------------------------|--------------------------|
----------------------------|--------------------------|
                                                            
----------------10--9-------|--9----14-14------10--9-------|
--10------------12--10--12--|--10---10-10------12--10--12--|
--11----11--------------12--|--------------------------12--|
--------12------------------|------------------------------|
----------------------------|------------------------------|
----------------------------|------------------------------|
                                                             
-------------------------|-----------10---------------------|
--10--------------8--10--|--12-10---------------12-10-------|
--9-----9---------9--11--|--12-11-12------------12-11-11-12-|
--------11---------------|--------14-12---------------12-14-|
-------------------------|----------------------------------|
-------------------------|----------------------------------|
                                                   
--------------10--9------|------------------------|
---------------------12--|--10--------------------|
--11---------------------|------------9------9-11-|
--12---------------------|------------------------|
-------------------------|------------------------|
-------------------------|------------------------|
                                                        
-----------------------------|----------10------------||
-----------------------12----|------10----------------||
--12-11-9--------12----------|--11--------------------||
----------12-----------------|------------------------||
-----------------------------|------------------------||
-----------------------------|------------------------||
Suggest correction new What's this?
You can suggest a correction to this tab. Community and Mods will review your correction and vote to approve or reject it.
comments
We did not receive enough feedback on this tab! Please rate:
print report bad tab
1 2 3 4 5
guest
You may want to rate the tab now too:
select rating
Please do not post tabs as comments. Select "correction" instead!