Oops, an error
Loading. Please wait.

Aeriths Theme Tab

version 3
version 3

Whole song

Interactive

999 views 1 this week
no commentswrite comment
1 2 3 4 5
1 last vote to show rating
add to favorites
launch autoscroll
font size
0
reset
how to read this tab
guitar tuner
Autoscroll
slow
fast
+/-
esc
set tempo
stop
Help us to improve Ultimate-Guitar.com Take our survey!
×
Author
Difficulty
novice
The chords might be wrong in some parts, but I tried my best to figure out what they 
could be. Sometimes the barred alternative of a chord might sound better and be easier to 
move to.

Chords used:
     EBGDAe
     ||||||
D----XX0232-|
Am---X02210-|
Bb---X13331-|
Gm---355333-|
Bm---X24432-|
F#m--244222
G----320003-|
A----X02220-|
A7---X02020-|


  D               Am              D               Am
e|----------------------------------------------------------------|
B|----3-----------1-------------------3-2-5-3---2-----------------|
G|--2---------------2---------------2---------4---2---------------|
D|4-------------------2-----------4-----------------------2-------|
A|----------------------------------------------------------------|
E|----------------------------------------------------------------|
  1 + 2 + 3 + 4 + 1 + 2 + 3 + 4 + 1 + 2 + 3 + 4 + 1 + 2 + 3 + 4 +



  D         Am                 Bb              Gm   D
e|---------------------------------------------------------------|
B|----3-----1----------------------------------------------------|
G|--2---------2--------------------------------------------------|
D|4-------------2----------0h2-0-------3-2-0-2-0----0--------0-2-|
A|---------------------------------------------------------------|
E|---------------------------------------------------------------|
  1 + 2 ... 1 + 2 + 3 + 4  +   1 + 2 + 3 + 4 + 1234 1234 123 4 +



  Bm          F#m             G               D
e|--------------------------------------------------------------|
B|--------------------------2-3---------------------------------|
G|----------0-2-----------4-------4-------0---2h4-2---------2---|
D|4-------4---------------------------------------------------4-|
A|--------------------------------------------------------------|
E|--------------------------------------------------------------|
  1 +...+ 4 + 1 + 2 + 3 + 4 + 1 + 2 + 3 + 4 + 1   + 2 + 3 + 4 +



  F#m                             G
e|----------------------------------------------------------------|
B|----------------------------------------------------------------|
G|-------(6)-----(4)-----(2)--4-2--------(0)-----(2)-----(4)--2---|
D|--------------------------------0-----------------------------4-|
A|4---------------------------------------------------------------|
E|----------------------------------------------------------------|
  1 + 2 + 3 + 4 + 1 + 2 + 3 + 4 + 1 + 2 + 3 + 4 + 1 + 2 + 3 + 4 +



  F#m                             G
e|----------------------------------------------------------------|
B|---------------(2)-----(2)----2-3-------------------3---2-------|
G|-------(6)-----(4)-----(2)--4-------------------------------4---|
D|----------------------------------------------------------------|
A|4---------------------------------------------------------------|
E|----------------------------------------------------------------|
  1 + 2 + 3 + 4 + 1 + 2 + 3 + 4 + 1 + 2 + 3 + 4 + 1 + 2 + 3 + 4 +



  D               G       Bm      F#m             Bm      F#m G
e|--------------------------------------2-2-----------------------|
B|--------------------3---2-------2-------------------3---2-------|
G|2---------------------------4-------------------------------4---|
D|--------4-------------------------------------------------------|
A|----------------------------------------------------------------|
E|----------------------------------------------------------------|
  1 + 2 + 3 + 4 + 1 + 2 + 3 + 4 + 1 + 2 + 3 + 4 + 1 + 2 + 3 + 4 +



  A           A7           G
e|---------------------------------------------------------|
B|-----------(0)-----------------3(3)----------------------|
G|2----------------(2)-0-2-4-2-0---------------------------|
D|------2------------------------------------------5-4-0-2-|
A|---------------------------------------------------------|
E|---------------------------------------------------------|
  1  2  3  4  1  2  3  4 + 1 + 2 + 3 + 4 + 1 + 2 + 3 + 4 +


Tempo slows down a bit here.

  D       *no chords*
e|---------------------------------------------------------------|
B|------------3---2----------------------------------------------|
G|--------------------4---2--------------------------------------|
D|0-------------------------------2------2-4-5--4--2--0----------|
A|---------------------------------------------------------------|
E|---------------------------------------------------------------|
  1 2 3 4 1 + 2 + 3 + 4 + 1 + 2 + 3 + 4  +   1  +  2  +  3 + 4 +


e|--------------------------------|
B|--------0-----------------------|
G|0---------------2---------------|
D|--------------------------------|
A|--------------------------------|
E|--------------------------------|
  1 + 2 + 3 + 4 + 1 + 2 + 3 + 4 +
                  ^
                  ^
        Song starts all over again on this down-beat.
Suggest correction
Give kudos to tab author, rate the tab!
1 2 3 4 5
comments
print report bad tab
guest
You may want to rate the tab now too:
select rating
Wanna post a correction for this tab? Suggest correction