Oops, an error
Loading. Please wait.

Anxious Heart Tab

version 1
version 1

Whole song

Interactive

4,840 views 6 this week
no commentswrite comment
1 2 3 4 5
please rate
add to favorites
launch autoscroll
font size
0
reset
how to read this tab
guitar tuner
Tab Pro tools
  • play this tab
  • loop segment
  • change instrument
  • show fretboard
  • metronome
×
Best way to learn
"Anxious Heart"
Autoscroll
slow
fast
+/-
esc
set tempo
stop
Contributor
Difficulty
advanced
Anxious Heart
Artist: Nobuo Uematsu
Tabbed by: PLZKLLME

Tuning: Standard (EADGBE)


NOTE: This song is allot easier to play if you fingerpick.


E---1-----------1---3-----------------------------------------|
B---1-----3-----1------3-----4-----------4---6----1-----------|
G---1-----2-----1------2-----5-----5-----5--------0-----------|
D---3-----0-----3------0-----5-----5-----5--------3-----2-----|
A---3-----0-----3------0-----3-----3-----3--------3-----------|
E---1-----0-----1------0-----------0--------------------------|


E---------------------------1--------------------|
B---------------------4--3--3----3---------------|
G------------3--5--3--5-----2---------2----------|
D------3--6--5--6--5--------0--------------3-----|
A---3-----------------------0--------------------|
E---1--------------------------------------------|

E------------------8------11--10--13--12----------------------------|
B-----------9--11--9--11--11------15------15------------------------|
G-------10------------------------14----------14--------------------|
D---10----------------------------12--------------15--14--12--------|
A---8-----------------------------12--------------------------12----|
E-------------------------------------------------------------------|

E------------------3--4--8--10---------------------------|
B---6-----------6---------------10-----------------------|
G------------5--------------7-------10--9--7-------------|
D---3--5--6-----------------------------------7----------|  X2
A------------------------------------------------8--7----|
E--------------------------------------------------------|

E---------------------------0-------------------------|
B---4-----------------1--4--1--3--1-------------------|
G---------------1--3-----------------0----------------|
D------------1--------------------------2--0----------|
A------1--3-----------------3-----------------3-------|
E---4--------------------------------------------3----|

E---------------------1-----0--------------------|
B---4-----------------1--4--1--3--1--------------|
G---------------1--3-----------------0-----------|
D------------1--------------------------2--------|
A------1--3-----------------3--------------------|
E---4--------------------------------------------|

E---8----------------------------------11---------|
B------6--8--10--------6--8--10--8----------------|
G-----------------------------------8-------------|
D------------------10-----------------------------|
A---8------------------------7--------------------|
E-------------------------------------------------|

E---8------------------------6--4-----------------|
B------6--8--10----6--8--10--------6--------------|
G-------------------------------------6-----------|
D----------------------------6--------------------|
A---8------------------------4--------------------|
E-------------------------------------------------|

E---8----------------------------------11---------|
B------6--8--10--------6--8--10--8----------------|
G-----------------------------------8-------------|
D------------------10-----------------------------|
A---8------------------------7--------------------|
E-------------------------------------------------|

E-----------------1-----------------------------1---------|
B---------4---3-------4-----------------4---3-------4-----|
G---------1---0---3---1-----------------1---0---3---1-----|
D---------3-----------3-----------------3-----------3-----|
A------3--------------3--------------3--------------3-----|
E---1-----------------1-----1--1--1-----------------1-----|
comments
We did not receive enough feedback on this tab! Please rate:
print report bad tab
1 2 3 4 5
I want to post or [tab]
guest
You may want to rate the tab now too:
select rating
Please do not post tabs as comments. Select "correction" instead!