Oops, an error
Loading. Please wait.

Aurons Theme Bass Tab

1,847 views 3 this week
no commentswrite comment
1 2 3 4 5
please rate
add to favorites
launch autoscroll
font size
0
reset
guitar tuner
Tab Pro tools
  • play this tab
  • loop segment
  • change instrument
  • show fretboard
  • metronome
×
Best way to learn
"Aurons Theme"
Autoscroll
slow
fast
+/-
esc
set tempo
stop
Contributor
Difficulty
Auron's Theme
Tabbed by: CryofthePlanet
Email Address: DarkLoner19@hotmail.com

Hey, this is the theme in Final Fantasy X that goes along with Auron. Far as I remember, 
don't hear it much besides in the Music Theater but it's a really good one. If you find 
mistake, contact me at the address above.

G|---------------------------------|
D|------------------2--0-----------|
A|---2--2--2---0--2----------------|
E|-----------0---------------------|

G|------------------3--2-----------|
D|----------------2----------------|
A|---2--2--2----2------------------|  Repeat from beginning
E|------------2--------------------|  Second time go through to main riff

G|--4-2-4~---0-4-2~---4-2-4~--6-7-6~------|
D|----------------------------------------|
A|----------------------------------------|
E|----------------------------------------|

G|--4-2-4~--0-4-2~---0-0~----0-------------|
D|--------------------4----2---4-----2-0-2-|
A|-----------------------------------------|
E|-----------------------------------------|

G|------------------------------------|
D|------------------2--0--------------|
A|---2--2--2---0--2-------------------|
E|-----------0------------------------|

G|------------------3--2--------------|
D|----------------2-------------------|
A|---2--2--2----2---------------------| Repeat like in the beginning
E|------------2-----------------------|

G|--4-2-4~---0-4-2~---4-2-4~--6-7-6~------|
D|------0~-------0~-------0~------0~------|
A|----------------------------------------|
E|----------------------------------------|


G|--4-2-4~---0-4-2~--0---0~----0-----------|
D|------0~-------0~----4-0~--2---4---2-0-2-|
A|-----------------------------------------|
E|-----------------------------------------|
comments
We did not receive enough feedback on this tab! Please rate:
print report bad tab
1 2 3 4 5
I want to post or [tab]
guest
You may want to rate the tab now too:
select rating
Please do not post tabs as comments. Select "correction" instead!