Oops, an error
Loading. Please wait.

Balamb City Breezy Tab

2,322 views 1 this week
no commentswrite comment
1 2 3 4 5
please rate
add to favorites
launch autoscroll
font size
0
reset
how to read this tab
guitar tuner
Autoscroll
slow
fast
+/-
esc
set tempo
stop
Help us to improve Ultimate-Guitar.com Take our survey!
×
Author
 
Balamb City / Breezy
by: Uematsu Nobuo
Tabbed by: Steven To
Tuning: Standard E

Here's the FVIII OST on youtube, posted by: Tsai67
http://www.youtube.com/watch?v=SdpqkTyaXMs&feature=related

1 - index finger
2 - middle finger
3 - ring finger
4 - pinky
f - fret

   EADGBe
f1 ||||||            ||||||            ||||||            ||||||
f2 |||1|2            |||1|2            ||||||            ||||||
f3 ||||||            ||||||            ||||||            |||||3
f4 ||||||            ||||||            ||||||            ||||||
f5 ||||||            ||||||            ||||||            ||||||

e  -------2-------2-|-------2-------2-|-------0-------0-|-------3-------3-|
B  -----0-----0-----|-----0-----0-----|-----0-----0-----|-----0-----0-----|
G  ---2---------2---|---2---------2---|---0---------0---|---0---------0---|
D  -0---------------|-0---------------|-0---------------|-0---------------|
A  -----------------|-----------------|-----------------|-----------------|
E  -----------------|-----------------|-----------------|-----------------|




   EADGBe
f1 ||||||            ||||||            ||||||            
f2 |||1|2            |||1|2            ||||||            
f3 ||||||            ||||||            ||||||            
f4 ||||||            ||||||            ||||||            
f5 ||||||            ||||||            ||||||            

e  -------2-------2-|-------2-------2-|-------0-------0-|
B  -----0-----0-----|-----0-----0-----|-----0-----0-----|
G  ---2---------2---|---2---------2---|---0---------0---|
D  -0---------------|-0---------------|-0---------------|
A  -----------------|-----------------|-----------------|
E  -----------------|-----------------|-----------------|




   EADGBe
f1 ||||||            ||||||            ||||||            
f2 ||||||            |||1|2            ||||||         
f3 ||||12            ||||3|            |||1||           
f4 |||3||            ||||||            ||||||            
f5 ||||||            ||||||            ||3|4|          

e  -3---------------|-2---------------|-----------------|
B  -----3-----------|-----3-----------|-5---------------|
G  ---4-------------|---2-------------|---3-------------|
D  -0---------------|-0---------------|-5---------------|
A  -----------------|-----------------|-----------------|
E  -----------------|-----------------|-----------------|




   EADGBe
f1 ||||||            ||||||            ||||||            ||||||
f2 |||111            |||111            ||||||            ||||1|
f3 ||||||            ||||||            ||||2|            |||||2
f4 ||||||            ||||||            ||||||            |||4||
f5 ||||||            ||||||            ||||||            ||||||

e  -------2-------2-|-------2h3p2----2|-------0-----0---|-------3-----3---|
B  -----2-----2-----|-----2------2----|-----3---3-------|---2-----2-----2-|
G  ---2---------2---|---2----------2--|---0-------0-----|-----4-----4-----|
D  -0---------------|-0---------------|-0---------------|-0---------------|
A  -----------------|-----------------|-----------------|-----------------|
E  -----------------|-----------------|-----------------|-----------------|
                     *hammer on with 3rd finger
                     then pull off immediately to make 3 sounds


   EADGBe
f1 ||||||            ||||||            ||||1|            ||||||
f2 |||111            ||||||            |||||3            ||1|||
f3 ||||||            |||||1            ||||||            |||||3
f4 ||||||            |||2||            ||||||            ||||||
f5 ||||||            |||3|4            ||||||            ||||||

e  -------2-------2-|-5-----3---------|-2---------------|-3---------------|
B  -----2-----2-----|-----------------|---1-------------|-----0-----------|
G  ---2---------2---|---5-4---4-5-----|-----------------|---0-------------|
D  -0---------------|-0---------------|-----------------|-2---------------|
A  -----------------|-----------------|-----------------|-----------------|
E  -----------------|-----------------|-----------------|-----------------|
                    *The trickiest part of the song
                    *when hitting the G on 4th fret, make sure you release
                    both pinky and ring finger from the 5th fret.

   EADGBe
f1 ||||||            ||||||            ||||||           
f2 |||||3            ||||||            ||1|2|           
f3 ||||||            |||||3            ||||||           
f4 ||||||            ||||||            ||||||         
f5 ||||||            ||||||            ||||||           

e  -2---------------|-3---------------|-0---------------|
B  -----0-----------|-----------------|-2---------------|
G  ---0-------------|---0-------------|-0---------------|
D  -0---------------|-0---------------|-2---------------|
A  -----------------|-----------------|-----------------|
E  -----------------|-----------------|-----------------|
                                       *Strum down



   EADGBe
f1 ||||||         f4 ||||||         f4 ||||||         f4 ||||||
f2 |||1|2         f5 |||1|2         f5 ||||||         f5 |||||1
f3 ||||3|         f6 ||||3|         f6 ||||||         f6 ||||||
f4 ||||||         f7 ||||||         f7 |||1|2         f7 |||34|
f5 ||||||         f8 ||||||         f8 ||||3|         f8 ||||||

e  -2-----2-------3-|-5-----5-------5-|-7-----7-------7-|-5-----5-------5-|
B  ---3-------3-----|---6-------6-----|---8-------8-----|---7-------7-----|
G  -----2-------2---|-----5-------5---|-----7-------7---|-----7-------7---|
D  -0---------------|-0---------------|-0---------------|-0---------------|
A  -----------------|-----------------|-----------------|-----------------|
E  -----------------|-----------------|-----------------|-----------------|
*just slide your fingers down the  
fret board, your finger positioning
is the same.   

   EADGBe
f1 ||||||         f4 ||||||         f4 ||||||         f1 ||||||
f2 |||1|2         f5 |||1|2         f5 ||||||         f2 ||||||
f3 ||||3|         f6 ||||3|         f6 ||||||         f3 ||||||
f4 ||||||         f7 ||||||         f7 |||1|2         f4 ||||||
f5 ||||||         f8 ||||||         f8 ||||3|         f5 |||||1

e  -2-----2-------3-|-5-----5-------5-|-7-----7-------7-|-5---------------|
B  ---3-------3-----|---6-------6-----|---8-------8-----|--(7)------------|
G  -----2-------2---|-----5-------5---|-----7-------7---|----(7)----------|
D  -0---------------|-0---------------|-0---------------|-0----(7)--------|
A  -----------------|-----------------|-----------------|-----------------|
E  -----------------|-----------------|-----------------|-----------------|
                                                         *(7) = harmonics
                                                         gently place finger
                                                         over the fret bar
                                                         between f8 and f7.
   EADGBe
f1 ||||||            ||||||            ||||||            ||||||
f2 ||||||            ||||||            ||||||            ||||||
f3 ||||11            ||||11            |||111            |||111
f4 |||2||            |||2||            ||||||            ||||||
f5 ||||||            |||||4            ||||||            |||||4

e  -------3---------|-5-----3---------|-------3---------|-5-----3---------|
B  -----3-----3---3-|---3-------3---3-|-----3-----3---3-|---3-------3---3-|
G  ---4---------4---|-----4-------4---|---3---------3---|-----3-------3---|
D  -0---------------|-0---------------|-0---------------|-0---------------|
A  -----------------|-----------------|-----------------|-----------------|
E  -----------------|-----------------|-----------------|-----------------|




   EADGBe
f1 ||||||                              ||||||            ||||||
f2 |||1|2                              ||||||            ||||||     
f3 ||||||                              |||12|            |||123     
f4 ||||||                              ||||||            ||||||        
f5 ||||||                              ||||||            ||||||         

e  -------2-------2-------2-------2---|-------0-------0-|-3---------------|
B  -----0-------0-------0-------0-----|-----3-----3-----|-3---------------|
G  ---2-------2-------2-------2-------|---3---------3---|-3---------------|
D  -0---------------------------------|-0---------------|-----------------|
A  -----------------------------------|-----------------|-----------------|
E  -----------------------------------|-----------------|-----------------|
                                                         *Repeat x times. :)
                                                         *Strum down



Leave your comments, questions, responses at my youtube page: st3v3n3ss 
Or my ultimate-guitar profile: ramensuki

Tabber's comments: I've been playing this song for over 3 years now and 
I just realized that I've been playing a particular part of the song wrong 
(after i've listened to the OST) Lol. I've fixed it and now the tab is 
accurate to a T. This is a novice tab and I frequently use it to teach 
students finger picking. Listen/practice with the OST to understand the 
timing; remember you don't have to follow the CHORDS exactly. Finger 
placement is based on the artists' comfort (for instance, Instead of using 
all three fingers on the last chord, you may just use an index finger to bar 
them all since they are on the same fret)

Suggest correction
What's this?
You can suggest a correction to this tab. Community and Mods will review your correction and vote to approve or reject it.
comments
We did not receive enough feedback on this tab! Please rate:
print report bad tab
1 2 3 4 5
guest
You may want to rate the tab now too:
select rating
Please do not post tabs as comments. Select "correction" instead!