Oops, an error
Loading. Please wait.

Balamb Garden Tab

version 1
version 1

Whole song

Interactive

13,358 views 21 this week
1 commentread comment
1 2 3 4 5
excellent!
x 4
add to favorites
launch autoscroll
font size
0
reset
how to read this tab
guitar tuner
Autoscroll
slow
fast
+/-
esc
set tempo
stop
Help us to improve Ultimate-Guitar.com Take our survey!
×
Author
Difficulty
intermediate
                       BALAMB GARDEN


 FMaj7
e-------12------10----8----|------8-10--8--------------|
b-------10------10----10---|---12-------10------10-----|
g-----9-----9------9-----9-|x3-10-------10---10----10--|
d--------------------------|---------------------------|
a--8-----------------------|---8--------8--------------|
E--------------------------|---------------------------|
 F                                      D
e--------------------------|---------||------------10-9-12-10-14-12-15-14-19-17-------|
b-------10-----------10----|---------||----10-9-10------------------------------14-15-|
g-------------10--------10-|---------||-----------------------------------------------|
d----10----10----10--------|-reapeat-||-0---------------------0-----------------------|
a--8-----------------------|---------||-----------------------------------------------|
E--------------------------|---------||-----------------------------------------------|
  Am
e-12-----------------------|-------------------------|------------10-9-12-10-14-12-15-|
b-------------13-----------|------------13-----------|----10-9-10---------------------|
g-------14----------14-----|------14-----------14----|--------------------------------|
d----14----14----14----14--|---14----14-----14----14-|--0-----------------------------|
a-0------------------------|-0-----------------------|-----------------------0--------|
E--------------------------|-------------------------|--------------------------------|

e-14-19-17-------|--17-------------------15p14--|
b----------14-15-|--------------17--------------|
g----------------|--------17----------17--------|
d----------------|-----14----14----14-----------|
a----------------|--0---------------------------|
E----------------|------------------------------|
  G
e--15-----------------------|-----------------------|
b--------12----15----12-----|------12----15----12---|
g--0------------------------|-0---------------------|
d-----12----12----12-----12-|---12----12----12----12|
a---------------------------|-----------------------|
E---------------------------|-----------------------|
                                                       Gm
e-15--14-15-----------------|-----------17---15--14-|-15-14-15-10-----------|
b-----------15------12------|------15---------------|-11----------11--------|
g-0------------0------------|-0-------0----0--------|-0-------------12----12|
d----------------12----12---|---12------------------|------------------12---|
a---------------------------|-----------------------|-----------------------|
E---------------------------|-----------------------|-----------------------|

e--------------------|--------------14----------|------------14-12-10-14----|
b--11--------11-13-11|--10----10-------10----10-|------10-------------------|
g--12--rest----------|-----11----11-------11----|---11----11----------------|
d--12----------------|--0-----------------------|-0-------------------------|
a--10----------------|--------------------------|---------------------------|
E--------------------|--------------------------|---------------------------|
  C                                  B               E/B
e-12--------------------|---------||---------------|---------------|
b-------------8---------|---------||---------7--11-|-9-------------|
g-------9----------9----|---------||-----8-9-------|------9---9----|
d----10---10----10---10-|---------||---9-----------|----9---9------|
a-----------------------|---------||---------------|-7-------------|
E-8---------------------|-8-------||-7-------------|---------------|

  F#/B    E/B                   B
e----------------|-----------|----------------|
b-7------------9-|----7--7---|----------7--11-|
g-6--6--8---9----|-10--------|------8-9-------|
d-8---------6----|-9---------|----9-----------|
a----------------|-----------|----------------|
E-7---------7----|-7---------|--7-------------|

   E/B               F#/B           B
e---------------|----------------|--------|
b-9-------------|--7-----------7-|--------|
g-----9---9-----|--6--6--8--9----|-8------|
d---9---9-------|--8--------6----|-9--9-9-|
a-7-------------|----------------|--------|
E------------7--|--7--------7----|-7------|

repeat whole thing twice and fade out on the beginning of the third time around.


Suggest correction
What's this?
You can suggest a correction to this tab. Community and Mods will review your correction and vote to approve or reject it.
comments
print report bad tab
1 comment total.
0 reply
3lacksabbath81 605 wrote on August 26 2008, 02:42 pm

ill finish the rest as soon as the update page loads

guest
You may want to rate the tab now too:
select rating
Please do not post tabs as comments. Select "correction" instead!