Oops, an error
Loading. Please wait.

Besaid Island Bass Tab

version 1
version 1

Whole song

Interactive

400 views 3 this week
no commentswrite comment
1 2 3 4 5
please rate
add to favorites
launch autoscroll
font size
0
reset
guitar tuner
Tab Pro tools
  • play this tab
  • loop segment
  • change instrument
  • show fretboard
  • metronome
×
Best way to learn
"Besaid Island"
Autoscroll
slow
fast
+/-
esc
set tempo
stop
Contributor
Difficulty
intermediate
Song: Besaid (Solo Bass Arrangement)
Composer: Nobuo Uematsu
Arranger: Sam Heyes (slinky1killed1bill)

This is my arrangement of the song Besaid 
from Final Fantasy X for bass guitar. 
I uploaded a video of me playing this 
on YouTube, use this link to watch it:

http://youtu.be/fLSWKL4PCbo

Intro

G-------14/16\14---------14---|
D-------12/14\12---------12---|
A-----------------------------| Repeat 2x
E--10---------------10--------| 
B--8----------------8---------|

Main Section

G--------------16\14-14------------------------------------------------|
D--------------------------------16\14-14------------------------------|
A--12----------------------------------------------17\12-12------------|
E-----10-10-10----------10-10-10----------10-10-10----------10-10-10---|
B--8-----------------8-----------------8-----------------8-------------|

G--------------16\14-14------------------------------------------------|
D--------------------------------16\14-14-------------16---------------|
A--12----------------------------------------------17------------------|
E-----10-10-10----------10-10-10----------10-10-10-------10-10-10------|
B--8-----------------8-----------------8--------------8----------------|

G--------------16\14-14------------------------------------------------|
D--------------------------------16\14-14------------------------------|
A--12----------------------------------------------17\12-12------------|
E-----10-10-10----------10-10-10----------10-10-10----------10-10-10---|
B--8-----------------8-----------------8-----------------8-------------|

G--------------16\14-14------------------------------------------------|
D--------------------------------16\14-14-------------16---------------|
A--12----------------------------------------------17------------------|
E-----10-10-10----------10-10-10----------10-10-10-------10-10-10------|
B--8-----------------8-----------------8--------------8----------------|

Break

G-------------14--11----------7--2--|
D----10h12----12--12----14-------4--|
A----10-------0---10----10----------| Repeat 2x
E-----------------------------5-----|
B-----------------------------------|

Outro

G----------19--14/16-14------19-------------19-------------19---|
D-------19----------------19-----16-14---19-------------19------|
A--12-------------------------------------------17-12-----------|
E---------------------------------------------------------------|
B---------------------------------------------------------------|

G----------19--14/16-14------19-------------19-------------19---|
D-------19----------------19-----16-14---19--------16---19------|
A--12-------------------------------------------17--------------|
E---------------------------------------------------------------|
B---------------------------------------------------------------|

G----------19--14/16-14------19-------------19-------------19---|
D-------19-----------16---19-----16-14---19-------------19------|
A--12-------------------------------17----------17-12-----------|
E---------------------------------------------------------------|
B---------------------------------------------------------------|

G----------19--14/16-14------19-------------19-----19---|
D-------19----------------19-----16-14---19--------16---|
A--12-------------------------------------------17------|
E-------------------------------------------------------|
B-------------------------------------------------------|
comments
We did not receive enough feedback on this tab! Please rate:
print report bad tab
1 2 3 4 5
I want to post or [tab]
guest
You may want to rate the tab now too:
select rating
Please do not post tabs as comments. Select "correction" instead!