Oops, an error
Loading. Please wait.

Black Water Bass Tab

2,509 views 1 this week
2 commentsread comments
1 2 3 4 5
1 last vote to show rating
add to favorites
launch autoscroll
font size
0
reset
guitar tuner
×
Best way to learn
"Black Water"
Autoscroll
slow
fast
+/-
esc
set tempo
stop
Author
Difficulty
Black Water

Intro [0:05]
G|----------------------------------------------------------------------------|
D|----------------------------------------------------------------------------|
A|----------------------------------------------------------------------------|
E|--2-0-0-2-0-0-2-0--4-0-0-4-0-0-4-0--3-0-0-3-0-0-3-0--2-0-0-2-0-0-2-0--------|

G|----------------------------------------------------------------------------|
D|----------------------------------------------------------------------------|
A|----------------------------------------------------------------------------|
E|--2-0-0-2-0-0-2-0--4-0-0-4-0-0-4-0--3-0-0-3-0-0-3-0—2*----------------------|

Main Riff [0:29]
G|-----------------------|----|-----------------------|----|-----------------------|----|
D|-----------------------|-x2-|-----------------------|-x2-|-----------------------|-x2-|
A|-----------------------|----|-----------------------|----|-----------------------|----|
E|--3-2-3--3-3p2--3-2-3--|----|--4-3-4--4-4p3--4-3-4--|----|--3-2-3--3-3p2--3-2-3--|----|

Interlude [1:01]
G|----------------|
D|----------------|
A|----------------|
E|--T.B.C.--------|

Intro Variation [1:23]
G|----------------------------------------------------------------------------|
D|----------------------------------------------------------------------------|
A|----------------------------------------------------------------------------|
E|--3-0-0-3-0-0-3-0--5-0-0-5-0-0-5-0--4-0-0-4-0-0-4-0--3-0-0-3-0-0-3-0--------|

G|----------------------------------------------------------------------------|
D|----------------------------------------------------------------------------|
A|----------------------------------------------------------------------------|
E|--3-0-0-3-0-0-3-0--5-0-0-5-0-0-5-0--4-0-0-4-0-0-4-0—3*----------------------|

G|----------------------------------------------------------------------------|
D|----------------------------------------------------------------------------|
A|----------------------------------------------------------------------------|
E|--3-0-0-3-0-0-3-0--5-0-0-5-0-0-5-0--4-0-0-4-0-0-4-0--3-0-0-3-0-0-3-0--------|

G|----------------------------------------------------------------------------|
D|----------------------------------------------------------------------------|
A|----------------------------------------------------------------------------|
E|--3-0-0-3-0-0-3-0--5-0-0-5-0-0-5-0--6-0-0-6-0-0-6-0--7-0-0-7-0-0-7-0--------|

Interlude 2 [2:06]
G|----------------------------|
D|----------------------------| x1
A|----------------------------|
E|--0-0-4p3--0-0-3p2--0-0-4p3-|

Drum Fill

G|-----------------------------|
D|-----------------------------| x1
A|-----------------------------|
E|--0-0-4p3--0-0-3p2--0-0-2p0--|

Main Riff [2:16]
G|-----------------------|----|-----------------------|----|
D|-----------------------|-x2-|-----------------------|-x2-|
A|-----------------------|----|-----------------------|----|
E|--3-2-3--3-3p2--3-2-3--|----|--4-3-4--4-4p3--4-3-4--|----|

If you're got any complaints, criticisms or better yet changes of the tab here's my 
hell_crazed_sadist_4_hire@hotmail.com
Suggest correction
Give kudos to tab author, rate the tab!
1 2 3 4 5
comments
print report bad tab
2 comments total.
0 reply
president_Uke 10 Nov 23, 2006 06:43 AM

Sorry, but what do the 'P's mean? I've only just started using tabs not to mention playing bass. ^_^

0 reply
Hell Crazed 31 Nov 24, 2006 10:28 AM

It's a pull off. Not sure how accurate this tab is right now so i'll look over the song again just in case.

guest
You may want to rate the tab now too:
select rating
Wanna post a correction for this tab? Suggest correction