Oops, an error
Loading. Please wait.

Black Water Tab

5,232 views 3 this week
4 commentsread comments
1 2 3 4 5
accurate
x 8
add to favorites
launch autoscroll
font size
0
reset
how to read this tab
guitar tuner
Autoscroll
slow
fast
+/-
esc
set tempo
stop
Help us to improve Ultimate-Guitar.com Take our survey!
×
Difficulty
novice
                             Black Water - Nobuo Uematsu
-------------------------------------------------------------------------------
Tabbed by:hashbrick(first tab so dont expect too much but i looked at the current bass 
for black water, it might have some bits right but is for the most part wrong)
Email:crapstardelux@hotmail.com

Tuning:

e|---------------------------------------------------------------------------|
B|---------------------------------------------------------------------------|
G|---------------------------------------------------------------------------|
D|-2-2-2-2-2-2-2-2--5-5-5-5-5-5-5-5--4-4-4-4-4-4-4-4--3-3-3-3-3-3-3-3--------|
A|-2-2-2-2-2-2-2-2--5-5-5-5-5-5-5-5--4-4-4-4-4-4-4-4--3-3-3-3-3-3-3-3--------|
E|-0-0-0-0-0-0-0-0--3-3-3-3-3-3-3-3--2-2-2-2-2-2-2-2--1-1-1-1-1-1-1-1--------|
     x x   x x   x    x x   x x   x    x x   x x   x    x x   x x   x
e|---------------------------------------------------------------------------|
B|---------------------------------------------------------------------------|
G|---------------------------------------------------------------------------|
D|-2-2-2-2-2-2-2-2--5-5-5-5-5-5-5-5--4-4-4-4-4-4-4-4--3--------------(3)\4---|
A|-2-2-2-2-2-2-2-2--5-5-5-5-5-5-5-5--4-4-4-4-4-4-4-4--3--------------(3)\4---|
E|-0-0-0-0-0-0-0-0--3-3-3-3-3-3-3-3--2-2-2-2-2-2-2-2--1--------------(1)\2---|
     x x   x x   x    x x   x x   x    x x   x x   x  /let ring_______
e|----------------------|----------------------|-----------------------------|
B|----------------------|----------------------|-----------------------------|
G|--------------------2x|--------------------2x|--------------------2x-------|
D|-5-4-5--5-5/4--5-4-5--|-6-5-6--6-6/5--6-5-6--|-5-4-5--5-5/4--5-4-5---------|
A|-5-4-5--5-5/4--5-4-5--|-6-5-6--6-6/5--6-5-6--|-5-4-5--5-5/4--5-4-5---------|
E|-3-2-3--3-3/2--3-2-3--|-4-3-4--4-4/3--4-3-4--|-3-2-3--3-3/2--3-2-3---------|

e|---------------------|-----------------------------------------------------|
B|---------------------|-----------------------------------------------------|
G|-------7---------6---|-----------------------------------------------------|
D|---7---------7-------|-----------------------------------------------------|
A|-----5---------5-----|-2-----2-----2----3-----3-----3---2-----2-----2------|
E|-0---------0---------|---0-0---0-0---0----0-0---0-0---0---0-0---0-0---0----|
                           x x   x x   x    x x   x x   x   x x   x x   x
e|---------------------------------------------------------------------------|
B|---------------------------------------------------------------------------|
G|---------------------------------------------------------------------------|
D|---------------------------------------------------------------------------|
A|-1-----1-----1---2-----2-----2---3-----3-----3---2-----2-----2---1---------|
E|---0-0---0-0---0---0-0---0-0---0---0-0---0-0---0---0-0---0-0---0-----------|
     x x   x x   x   x x   x x   x   x x   x x   x   x x   x x   x let ring
e|---------------------------------------------------------------------------|
B|-5-----5-----5----6-----6-----6---5-----5-----5---4-----4-----4---5-----5--|
G|---------------------------------------------------------------------------|
D|-2-----2-----2----3-----3-----3---2-----2-----2---1-----1-----1---2-----2--|
A|---0-0---0-0---0----0-0---0-0---0---0-0---0-0---0---0-0---0-0---0---0-0----|
E|---------------------------------------------------------------------------|

e|---------------------------------------------------------------------------|
B|-----5---6-----6-----6---8-----8-----8--10----10----10--11-----------------|
G|---------------------------------------------------------------------------|
D|-----2---3-----3-----3---5-----5-----5---7-----7-----7---8-----------------|
A|-0-0---0---0-0---0-0---0---0-0---0-0---0---0-0---0-0---0-------------------|
E|---------------------------------------------------------------------------|
   x x   x   x x   x x   x   x x   x x   x   x x   x x   x let ring
e|--------------------------------|------------------------------------------|
B|--------------------------------|------------------------------------------|
G|--------------------------------|------------------------------------------|
D|--------------------------------|-------+---------------10/9---------------|
A|-0-0-8-7----0-0-5-7----0-0-8-7--|-0-0-8-7--0-0-5/7--0-0-10/9---------------|
E|--------------------------------|------------------------8/7---------------|
on bass while last note rings       back to guitar
----------------------|----------------------|---------------------------------|
B|----------------------|----------------------|-------------------------------|
G|--------------------2x|--------------------2x|--------------------2x---------|
D|-5-4-5--5-5/4--5-4-5--|-6-5-6--6-6/5--6-5-6--|-5-4-5--5-5/4--5-4-5-----------|
A|-5-4-5--5-5/4--5-4-5--|-6-5-6--6-6/5--6-5-6--|-5-4-5--5-5/4--5-4-5-----------|
E|-3-2-3--3-3/2--3-2-3--|-4-3-4--4-4/3--4-3-4--|-3-2-3--3-3/2--3-2-3-----------|
                                                 fade out on last one

| /  slide up
| \  slide down
| h  hammer-on
| p  pull-off
| ~  vibrato
| +  harmonic
| x  Mute note
===============================================================================
Suggest correction
What's this?
You can suggest a correction to this tab. Community and Mods will review your correction and vote to approve or reject it.
comments
print report bad tab
4 comments total. Showing first comments.
+1 reply
LordThon 199 wrote on December 28 2006, 01:13 pm

It looks about right, but...I think a number of things you have as power chords are really dissonant notes, mainly keeping the same bass note, and moving the higher ones around.

+1 reply
isotope 500 12 wrote on February 2 2007, 05:11 pm

non accurate

0 reply
manju 350 wrote on May 8 2009, 08:15 pm

i thought there was supposed to be atleast on pinch hormonic?

guest
You may want to rate the tab now too:
select rating
Please do not post tabs as comments. Select "correction" instead!