Oops, an error
Loading. Please wait.

Blue Fields Tab

version 1
version 1

Whole song

Interactive

425 views 1 this week
1 commentread comment
1 2 3 4 5
please rate
add to favorites
launch autoscroll
font size
0
reset
how to read this tab
guitar tuner
Autoscroll
slow
fast
+/-
esc
set tempo
stop
Help us to improve Ultimate-Guitar.com Take our survey!
×
Author
Difficulty
intermediate
Composed by Nobuo Uematsu. Arranged by Kakitamaster.

capo = 3rd fret
standard tuning

h = hammer on
p = pull off

E|---------------------|---------------------|---------------------|---------------------|
B|-----1---------------|-----0---3-----------|-----1---------------|-----0---3-----------|
G|-----2---------------|-----2-0-------------|-----2---------------|-----2-0-------------|
D|---2-----------------|-0h2-----------------|---2-----------------|-0h2-----------------|
A|-0----------2-0------|---------------------|-0----------2-0------|---------------------|
E|----------0----------|---------------------|----------0----------|---------------------|


E|-3-------------------|-----------0---------|---------------------|---------------------|
B|-----0-3-------------|-----0---3-----------|-3---0-1-------------|-----0---1-3---------|
G|-----0---------------|-----2-0-------------|-----2---------------|-----2-0-------------|
D|---2-----------------|-0h2-----------------|---2-----------------|-0h2-----------------|
A|-0---------2-0-------|---------------------|-0-----------2-0-----|---------------------|
E|---------0-----------|---------------------|-----------0---------|---------------------|


E|-0-3-2---------------|-------------0-------|---------------------|---------------------|
B|-------3-------------|-----0---1-3---------|---------------------|-----1-0-------------|
G|-----2---------------|-----2-0-------------|-2-0-----------------|-----2---2-0---------|
D|---------------------|-0h2-----------------|-2-------------------|-0h2-----------------|
A|-0---------2-0-------|-------------0-------|-------------2-0-----|---------------------|
E|---------0-----------|---------------------|-----------0---------|---------------------|


E|-3-------------------|-----------0---------|---------------------|---------------------|
B|-----0-3-------------|-----0---3-----------|-3---0-1-------------|-----0---1-3---------|
G|-----0---------------|-----2-0-------------|-----2---------------|-----2-0-------------|
D|---2-----------------|-0h2-----------------|---2-----------------|-0h2-----------------|
A|-0---------2-0-------|---------------------|-0-----------2-0-----|---------------------|
E|---------0-----------|---------------------|-----------0---------|---------------------|


E|---------------------|-----------------0---|---0---------0---0---|---------------------| 
B|-1---1-0-------------|-----0---------3-----|-3---------3-----0---|---------3-1-0-------|
G|-----2---------------|-----2-0-2-0-2---2---|---2---------2-------|---------------0-----|
D|---2-----------------|-0h2---------2-2-----|-2-------2-2---------|-----------------2---|
A|-0---------2-0-------|---------------------|---------------------|---------------------|
E|---------0-----------|---------------------|-----0-0-------1---0-|-0-0-----------------|

 
E|-3-------------------|------0--------------|---------------------|-0-3-2---------------|
B|-------3-------------|--1-3---3---0-1------|----------0-1-3------|-------3-------------|
G|-----2---2-------2---|---------------------|-0------2------------|---------2-------2---|
D|---2-------2---2-----|----------2----------|---2--2--------------|-----------2---2-----|
A|-0-------------------|---------------------|---------------------|-0-------------------|
E|-------------1-------|--------2------------|-----1---------------|-------------2-------|


E|-0-------------------|---------------------|---------------------|---------------------|
B|-3p0-1-3-------------|-1p0-----0-----------|---------------------|-----0---0h1-0-------|
G|---------------------|----2----------------|-2-0-----------------|-------2-------------|
D|---------------------|-------2-------------|-----0---------------|---2-----------------|
A|---------------------|-0-------------------|-------2-------------|-0-------------------|
E|---------------------|---------------------|---------------------|-----3-1-----3-------|


E|-3-------------------|------0--------------|---------------------|---------------------|
B|-------3-------------|--1-3---3---0-1------|-----------0-1-3-----|-1---1-0-------------|
G|-----2---2-------2---|---------------------|-0-------2-----------|---------2-------2---|
D|---2-------2---2-----|----------2----------|---2---2-------------|---2-------2---2-----|
A|-0-------------------|---------------------|---------------------|-0-------------------|
E|-------------1-------|--------2------------|-----1---------------|-------------2-------|


E|-0-------------------|---------------------|-------------0-------|---------------------|
B|-3-0-----------------|-------0---0h1-0-----|-----1-0-1-3---1-----|---------------------|
G|-----0-2-------2-----|---------2-------2---|---------------------|-2-0-2---2-----------|
D|---------3-2-0---2---|-----2---------------|---------------------|-------2-------------|
A|-------0-------------|-3-0-------------0---|---0-2---------------|-----0---------------|
E|---------------------|-------3-1-----3-----|-0-------1---2---1---|---------------------|


E|---------------------|---------0-----------|-3---2---0-----------|-----------------0---|
B|---------------------|-1-0-1-3-------------|-------3-------------|-----1-----------0---|
G|-----2-----2-----2---|---------------------|---------------------|---2---2-------1-1---|
D|---2-----2-----2-----|---------------------|---------------------|-2-------2---2---2---|
A|---------------------|-0-------------------|---------------------|-----------------0---|
E|-1-----2-----1-------|-----1---2-----------|---3-----0-----------|-----------0-----0---|


E|-5---5-3-2---0---0---|-0-------------0-----|---------0-----------|---------------------|
B|-5-5---0-3-------1-1-|---3---1-0-1-3---1---|---------1-----------|---------------------|
G|-5-5---2-2-----2-2---|---2-----------------|-2-0-2---------------|-----2-0-2-0-2---2---|
D|-5-----0-0-------2---|---0---0-------------|-------2-------------|-0h2-2---------2-----|
A|-5-----0---------0---|---0-----------------|-----0-------2-0-----|-------------0-------|
E|-5-5---2---2-----1-1-|---2-2---------2-----|-----------0---------|---------------------|


E|---------------------|---------------------|---------------------|---------------------|
B|---------------------|---------------------|---1-----------0---3-|----1-----------0---3|
G|-0-------------------|---------------------|---2-----------2-0---|----2-----------2-0--|
D|---4-2-0-2---2-0-----|-------0-2-----------|-2---------0h2-------|--2---------0h2------|
A|-----------3---------|-3-2-3-----3-0---0---|-------2-0-----------|0-------2-0----------|
E|-2-------1-----2-----|-1-------3-----3-----|-----0---------------|------0--------------|


Loop or end with this chord.

E|----------0----------|
B|----------1----------|
G|----------2----------|
D|----------2----------|
A|----------0----------|
E|----------0----------|
Suggest correction
What's this?
You can suggest a correction to this tab. Community and Mods will review your correction and vote to approve or reject it.
comments
We did not receive enough feedback on this tab! Please rate:
print report bad tab
1 2 3 4 5
1 comment total.
0 reply
2bgarrett 59 wrote on April 14 2014, 09:57 am

For a song that was not intended for guitar, this is an incredible tab!

guest
You may want to rate the tab now too:
select rating
Please do not post tabs as comments. Select "correction" instead!