Oops, an error
Loading. Please wait.

Cosmo Canyon Bass Tab

version 1
version 1

Whole song

Interactive

3,422 views 6 this week
no commentswrite comment
1 2 3 4 5
please rate
add to favorites
launch autoscroll
font size
0
reset
guitar tuner
Autoscroll
slow
fast
+/-
esc
set tempo
stop
Help us to improve Ultimate-Guitar.com Take our survey!
×
Hey everybody, this tab is the one that goes with the guitar one I made (it’s version 2, 
“Nobuo Uematsu” band name)

It’s regular Bass Tuning (E-A-D-G)


 Intro
G|---------------|------------|---------------|----------|
D|-0-2-2-2-2-----|---------0--|-0-2-2-2-2-----|----------|
A|---------------|------2-----|---------------|----------|
E|---------------|------------|---------------|----------|


|-0-2-2-2-2-----|------------|---------------|------------|
|---------------|---------0--|-0-2-2-2-2-----|---------0--|
|---------------|------2-----|---------------|------2-----|
|---------------|------------|---------------|------------|

                            <-- Guitar starts here
|---------------|----------|----------------|------------|
|-0-2-2-2-2-----|----------|o-0-2-2-2-2-----|---------0--|
|---------------|----------|o---------------|------2-----|
|---------------|----------|----------------|------------|


|---0-0-0-0-----|------0-----|-0-2-2-2-2-----|------2-----|
|-4-------------|---------4--|---------------|---------0--|
|---------------|------------|---------------|------------|
|---------------|------------|---------------|------------|


|---------------|------------|---------------|------------|
|-0-2-2-2-2-----|------2--0--|-0-2-2-2-2-----|------2--0--|
|---------------|------------|---------------|------------|
|---------------|------------|---------------|------------|


|---------------|------------|---0-0-0-0-----|------0-----|
|-0-2-2-2-2-----|---------0--|-4-------------|---------4--|
|---------------|------2-----|---------------|------------|
|---------------|------------|---------------|------------|


|-0-2-2-2-2-----|------2-----|---------------|------------|
|---------------|---------0--|-0-2-2-2-2-----|------2--0--|
|---------------|------------|---------------|------------|
|---------------|------------|---------------|------------|


|---------------|------------|---------------|------------|
|-0-2-2-2-2-----|------2--0--|-0-2-2-2-2-----|---------0--|
|---------------|------------|---------------|------2-----|
|---------------|------------|---------------|------------|


|---------------|------------|---------------|-----------|
|-0-2-2-2-2-----|---------0--|---------------|-----------|
|---------------|------2-----|---0-0-0-0-----|------3----|
|---------------|------------|-3-------------|-----------|


|---0-0-0-0-----|------------|---------------|------------|
|-4-------------|---------0--|-0-2-2-2-2-----|---------0--|
|---------------|------2-----|---------------|------2-----|
|---------------|------------|---------------|------------|


|---------------|------------|----------|----------|
|-0-2-2-2-2-----|---------0--|----------|----------|
|---------------|------2-----|-0--------|-3--------|
|---------------|------------|----------|----------|


|---------------|---------------|---------------|--------------|
|---------------|---------------|---------------|--------------|
|-3--3-3-3--3-3-|-3--3-3-3--3-3-|-3--3-3-3--3-3-|-3--3-3-3-2---|
|---------------|---------------|---------------|--------------|
(In the song, it’s the background music that gets louder, not the bass)


|---------------|------------|---------------|------------|
|-0-2-2-2-2-----|---------0--|-0-2-2-2-2-----|---------0--|
|---------------|------2-----|---------------|------2-----|
|---------------|------------|---------------|------------|
Here is the last note of the guitar, to hold
 <--From here                 until there -->


|---------------|------------|---------------|-------------|
|-0-2-2-2-2-----|---------0--|-0-2-2-2-2-----|---------0--o|
|---------------|------2-----|---------------|------2-----o|
|---------------|------------|---------------|-------------|

Thanks for watching this out!
Suggest correction
Give kudos to tab author, rate the tab!
1 2 3 4 5
comments
print report bad tab
guest
You may want to rate the tab now too:
select rating
Please do not post tabs as comments. Select "correction" instead!