Oops, an error
Loading. Please wait.

Cosmo Canyon Tab

version 1
version 1

Whole song

Interactive

9,012 views 12 this week
no commentswrite comment
1 2 3 4 5
excellent!
x 5
add to favorites
launch autoscroll
font size
0
reset
how to read this tab
guitar tuner
Autoscroll
slow
fast
+/-
esc
set tempo
stop
Help us to improve Ultimate-Guitar.com Take our survey!
×
Author
Difficulty
novice
INTRO
e|--------------------------------------------------------------------------|
B|--------------------------------------------------------------------------|
G|--------------------------------------------------------------------------|
D|---------------------------------5h7-7-7-7--------------------------------|
A|-5h7-7-7-7-------5-5h7-7-7-7------------------5-5h7-7-7-7----5-5h7-7-7-7--|
E|---------------7----------------------------7--------------7--------------|

LEAD I
e|--------------------------------------------------------------------------|
B|---------------------------10----10h12-12-12p10----10-10h12---------------|
G|-7h9-7h9-7h9---7h9-12---12----12----------------12------------------------|
D|--------------------------------------------------------------------------|
A|--------------------------------------------------------------------------|
E|--------------------------------------------------------------------------|

e|----------------------------------------|--------------|-----------10-----|
B|-10-10----10-12--8p5-5------8p5----5----|--------------|-------12---------|
G|-------12-----------------7------7------|--------7-----|------------------|
D|----------------------------------------|-----9--------|------------------|
A|----------------------------------------|--------------|------------------|
E|----------------------------------------|--------------|------------------|
                                               1st time       2nd time
(GO BACK TO LEAD I)


LEAD II
e|-12-12-12-14-12-10-------10-12-12-15-14-12-10-----------------------------|
B|----------------------12--------------------------------------------------|
G|--------------------------------------------------------------------------|
D|--------------------------------------------------------------------------|
A|--------------------------------------------------------------------------|
E|--------------------------------------------------------------------------|

e|-5-5-3-5-7-8-----7-8-10---|----7~~~-----|----12~~~----15p12~~~------------|
B|--------------------------|-------------|---------------------------------|
G|--------------------------|-------------|---------------------------------|
D|--------------------------|-------------|---------------------------------|
A|--------------------------|-------------|---------------------------------|
E|--------------------------|-------------|---------------------------------|
                                1st time          2nd time
(GO BACK TO LEAD II)

Song Structure:
INTRO   (1x)
LEAD I  (2x)
LEAD II (2x)
ETC...

BONUS: ACOUSTIC FILL

I do not take credit for this, I just thought I should post this version because it has 
more "feeling" to it if you play it correctly.  Kudos to whoever made it; found via google.
Suggest correction
What's this?
You can suggest a correction to this tab. Community and Mods will review your correction and vote to approve or reject it.
comments
print report bad tab
guest
You may want to rate the tab now too:
select rating
Please do not post tabs as comments. Select "correction" instead!