Oops, an error
Loading. Please wait.

Final Fantasy Vi The Decisive Battle power

3,440 views 3 this week
3 commentsread comments
1 2 3 4 5
2 more votes to show rating
add to favorites
guitar tuner
Autoscroll
slow
fast
+/-
esc
set tempo
stop
File Format
Filesize

.ptb
13 Kb
"Final Fantasy Vi The Decisive Battle"
demo version
Play now

or get full version for Free

×
Get full version now!
Learn and play this song
in Tab Pro
Try for free

or get $10 off Welcome Bonus

Get welcome bonus
Get access to Tab Pro version of “Final Fantasy Vi The Decisive Battle”!
Tab Pro is a premium guitar tab service, available on PC, Mac, iOS and Android
TRY FOR FREE
Your download will start in 7 seconds
×
Like this song? We have more! Follow us on Facebook for daily tips, lessons and other guitar-related content.
To download “Final Fantasy Vi The Decisive Battle” Power tab click button below
Please note that you must have Power Tab software installed on your
computer in order to view this file.
Suggest correction
Give kudos to tab author, rate the tab!
1 2 3 4 5
comments
report bad tab
3 comments total.
0 reply
rev222o 10 Oct 31, 2006 04:37 PM

for classical guitar!

Tuning : E A D G B E Time Signature: 4/4

| | | | | | | |
|-0-----------1-----------2--------|-----1-----------0----------------|
|-----1-----------1-----------1----|---------1-----------0---1---3----|
|---------2-----------2------------|-2-----------2--------------------|
|----------------------------------|----------------------------------|
|-0--------------------------------|----------------------------------|
|----------------------------------|----------------------------------|

| | | | | | | |
|-0-----------1-----------2--------|-----1-----------0----------------|
|-----1-----------1-----------1----|---------1-----------0---1---3----|
|---------2-----------2------------|-2-----------2--------------------|
|----------------------------------|----------------------------------|
|-0-----------0--------------------|----------------------------------|
|----------------------------------|----------------------------------|

| | | | | | | |
|-0-----------1-----------2--------|-----1-----------0----------------|
|-----1-----------1-----------1----|---------1-----------0---1h--3----|
|---------2-----------2------------|-2-----------2--------------------|
|----------------------------------|----------------------------------|
|-0-----------0-----------0--------|-----0-----------0----------------|
|----------------------------------|-------------------------3--------|

| | | | | | | |
|-0-----------1-----------2--------|-----1-----------0----------------|
|-----1-----------1-----------1----|---------1-----------0---1h--3----|
|---------2-----------2------------|-2-----------2--------------------|
|----------------------------------|----------------------------------|
|-0-----------0-----------0--------|-----0-----------0----------------|
|----------------------------------|-------------------------3--------|

| | | | | | | |
|---------0------------------------|----------------------------------|
|-----------------3---1-------0----|-----1h--3-------0----------------|
|-2--------------------------------|-------------------------0--------|
|----------------------------------|----------------------------------|
|----------------------------------|-----3-----------2----------------|
|-1---------------3-----------0----|-------------------------3--------|

| | | | | | | |
|----------------------------------|----------------------------------|
|----------------------------------|----------------------------------|
|----------------------------------|----------------------------------|
|----------------------------------|-----------------2h------0--------|
|-0---------------2----------------|-3--------------------------------|
|----------------------------------|----------------------------------|

| | | | | | | |
|---------0------------------------|----------------------------------|
|-----------------3---1-------0----|-----1---3-------0----------------|
|-2--------------------------------|-------------------------0--------|
|----------------------------------|----------------------------------|
|----------------------------------|-----3-----------2----------------|
|-1---------------3-----------0----|-------------------------3--------|

| | | | | | | |
||---------------------------------|---------------------------------||
|*---------------------------------|---------------------------------*|
||2-----------2-----------2--------|-----2-----------2---------------||
||2-----------2-----------2--------|-----2-----------2---------------||
|*0-----------0-----------0--------|-----0-----------0---------------*|
||---------------------------------|-------------------------3-------||

| | | | | | | |
|----------------------------------|----------------------------------|
|---------0h--1h--0----------------|----------------------------------|
|-----2---------------2------------|----------------------------------|
|-2-----------------------2--------|----------------------------------|
|-----------------------------0----|-2-------3-----------3---2---3----|
|----------------------------------|-------------5--------------------|

| | | | | | | |
|----------------------------------|----------------------------------|
|----------------------------------|----------------------------------|
|----------------------------------|-----------------2-------1--------|
|-0-------2-----------2---0---2----|-3-------0h--2-------2-------2----|
|-------------3--------------------|-----3--------------------------

0 reply
rev222o 10 Oct 31, 2006 04:39 PM

*continued

| | | | | | | |
|----------------------------------|----------------------------------|
|---------1h--0--------------------|----------------------------------|
|-2---------------2----------------|----------------------------------|
|-----2---------------2------------|----------------------------------|
|-------------------------3---0----|-2-------3-----------3---2---3----|
|----------------------------------|-------------5--------------------|

| | | | | |
|----------------------------------|------------------|
|----------------------------------|------------------|
|----------------------------------|---------2---1----|
|-0-------2-----------2---0---2----|-3---2------------|
|-------------3--------------------|------------------|
|----------------------------------|------------------|

| | | |
|----------------------------------|
|---------1------------------------|
|-2---------------2-------1--------|
|----------------------------------|
|----------------------------------|
|-1---------------0----------------|

| | | | | | | |
|-1--------------------------------|----------------------------------|
|-1-----------------------1--------|-0-----------1-----------3--------|
|-2--------------------------------|-0--------------------------------|
|-3-----------------------4--------|-------------------------0--------|
|-3--------------------------------|----------------------------------|
|-1--------------------------------|-3--------------------------------|

| | | | | | | |
|-0-----------1-----------3--------|----------------------------------|
|----------------------------------|-1-------1h--3---0h--1h--0--------|
|----------------------------------|---------2-------0-----------2----|
|-------------0-----------2--------|----------------------------------|
|-3--------------------------------|-3---------------2-----------0----|
|----------------------------------|-----------------------------1----|

| | | | | | | |
|-------------1--------------------|----------------------------------|
|-------------------------1--------|-0--------------------------------|
|----------------------------------|-0-----------2-----------0--------|
|-------------------------4--------|----------------------------------|
|----------------------------------|----------------------------------|
|----------------------------------|-3--------------------------------|

| | | | | | | |
|----------------------------------|-------------------------0--------|
|-3--------------------------------|-3--------------------------------|
|-------------------------0--------|---------4h------5----------------|
|-----------------2----------------|----------------------------------|
|-0-------0------------------------|-0--------------------------------|
|----------------------------------|----------------------------------|

| | | | | | | |
|-1--------------------------------|----------------------------------|
|-1-----------------------1--------|-0-----------1-----------3--------|
|-2--------------------------------|-0--------------------------------|
|-3-----------------------4--------|-------------------------0--------|
|-3--------------------------------|-------------0-----------2--------|
|-1--------------------------------|-3--------------------------------|

| | | | | | | |
|-0-----------1-----------3--------|-2-----------3-----------5--------|
|----------------------------------|----------------------------------|
|----------------------------------|----------------------------------|
|-------------0-----------2--------|-0-----------2-----------3--------|
|-3--------------------------------|----------------------------------|
|----------------------------------|----------------------------------|

| | | | | | | |
|-8--------------------------------|-----5----------------------------|
|-------------6-----------6--------|---------8---6--------------------|
|----------------------------------|-----------------5----------------|
|----------------------------------|---------------------7---5--------|
|-8-------8-------8---8---8--------|----------------------------------|
|----------------------------------|----------------------------------|

| | | | | | | |
|----------------------------------|----------------------------------|
|-4-----------------------4--------|-------------4--------------------|
|----------------------------------|-------------------------5--------|
|-------------4--------------------|-4---

0 reply
rev222o 10 Oct 31, 2006 04:41 PM

*continued (ignore the tick marks and those last 2 measures)

| | | | | | | |
|----------------------------------|----------------------------------|
|-4-----------------------4--------|-------------4--------------------|
|----------------------------------|-------------------------5--------|
|-------------4--------------------|-4--------------------------------|
|-3-------3-------3---3---3--------|----------------------------------|
|----------------------------------|----------------------------------|

| | | | | | | |
|----------------------------------|-------------1--------------------|
|-0-----------3--------------------|-3-----------------------3--------|
|-0-----------------------4--------|-0--------------------------------|
|----------------------------------|----------------------------------|
|----------------------------------|-2--------------------------------|
|-3--------------------------------|----------------------------------|

| | | | | | | |
|-------------3--------------------|-----1h--0------------------------|
|-5-----------------------5--------|-------------4---3---2---1h--0----|
|-0--------------------------------|----------------------------------|
|----------------------------------|----------------------------------|
|-3--------------------------------|----------------------------------|
|----------------------------------|----------------------------------|

the first time you get here, repeat from the beginning.

| | | | | | | |
||---------------------------------|---------------------------------||
|*---------------------------------|---------------------------------*|
||2-----------2-----------2--------|-----2-----------2---------------||
||2-----------2-----------2--------|-----2-----------2---------------||
|*0-----------0-----------0--------|-----0-----------0---------------*|
||---------------------------------|-------------------------3-------||

guest