Oops, an error
Loading. Please wait.

Final Fantasy Viii - Blue Fields Tab

5,465 views 3 this week
2 commentsread comments
1 2 3 4 5
excellent!
x 3
add to favorites
launch autoscroll
font size
0
reset
how to read this tab
guitar tuner
Tab Pro tools
  • play this tab
  • loop segment
  • change instrument
  • show fretboard
  • metronome
Autoscroll
slow
fast
+/-
esc
set tempo
stop
Contributor
                                 Blue Fields
                               

Track 1 (Capo 3)
     S S S S S S S S S S S S    S S S S S S S  S S  S S S  
E||----------3---2-----------|----------3---3S-5----------|
B||--------0---3-3-----------|--------0---0------3S-5---0-|
G||----0---------------0-----|----0-----------------------|
D||------2---------0-4---4-0-|------2-----------------7---|
A||--0-----------------------|--0-------------------------|
D||----------------------0---|------------------------0---|


  S S S S S S S S S S S S    S S S S S S S S S S S S  
----------3---2-----------|----------------0---3-2-3-|
--------0---3-3-----------|--------0---3-----0---3---|
----0---------------0-----|----0---------0-----------|
------2---------0-4---4-0-|------2---4---------------|
--0-----------------------|--0-----------------------|
----------------------0---|----------------------2---|


    S S S S S S S S S S S S    S S S S S S S S S S S S  
|---3-----------------------|----------------------0---|
|---------------3-----------|------------------3-------|
|*------0---0-------0---0---|------0---0-2-0-----0---0-|
|*----2---2---2---2---2---2-|----3---3-------3---------|
|---0-----------------------|--0-----------------------|
|-----------------------2---|--------------------------|


  S S S S S S S S S S S S    S S S S S S S S S S S S  
--------------------------|--------------------------|
--3-------0---1-----------|------------------1---3---|
------0-----------0---0---|------0---0-2-0-----------|
----4---4---4---4---4---4-|----3---3-------3---3---3-|
--0-----------------------|--0-----------------------|
----------------------2---|--------------------------|


  S S S S S S S S S S S S    S S S S S S E  E  E     S S S S S S S S S S S S  
--0---3---2---------------|-----------------------|--0-----------------------|
--------------3-----------|--L--------------1--3--|----------------------0---|
--------0-2-0-------------|----------0------------|------0---2-------2-----0-|
----2---------4-0---0-----|----0-3-2---3-3--------|----4---4---4---5---5-----|
--0---------------3---3-2-|--0--------------------|--0-----------0-----------|
----------------------2---|-----------------------|----------------------0---|


  S S S S S S S S S S S S    S S S S S  S S S S S S S  
----------------------0-2-|--3------------------------|
------0---------0---3-----|---------------3-----------|
----------5-------5-------|------0---2S-4---0---0-----|
----7---7---7-------------|----2---0----------4---4-0-|
--0-----------0-----------|--0------------------------|
----------------------2---|-----------------------2---|


  S S S S S  S S S S S S S    S S S S S S S S S S S S  
-----------------------0---|--------------------------|
--L--------------0-3-------|--3-------0-----0---------|
------0---2S-4-5---2-0-----|------0---2-4-5-----------|
----3---3--------------3-0-|----4---4---------5-4-0---|
--0------------------------|--0---------------------2-|
---------------------------|----------------------2---|


                                                                      ^         
  S S S S S  S  S S S S S S    S S S S S S S S S S S S    S S S S S S E  E  E   
----------------------------|--------------------------|-----------------------|
--------------------1---3---|--1-----------0-----0-----|-----------------0-----|
------0---2S-4S-2-----------|------0-2---------2---0---|--------------------0--|
----3---3---------3---3---3-|----2-----4-0---0-------0-|------3-2-0---2--------|
--0-------------------------|--0-----------------------|----3-------3-2--------|
----------------------------|--------------5-----------|--3-----------2--------|


  S S S S S S S S S S S S    S S S S S S S S S S S S    S S S S E  S S E  E   
----------0-------0-------|------3---5---3---5---3---|-----------------------|
------3---0---3---0---3---|------3---5---3---5---3---|--1-------0--1------3--|
--2---2-------2-------2---|----2---2---2---2---2---2-|------0-2------L-------|
----2---2---2---2---2---2-|--------------------------|----2------------0-----|
--0-----------------------|--0-----------------------|--0--------------------|
----------------------2---|----------------------2---|--------------------2--|


  S S S S E  E  E  E     S S S S S S S S S S S S    S S S S S S S S S S S S  
--0-------------------|--------------------------|----------0-----0---------|
----------1-----------|--------------------------|--------0---3-1-----3---0-|
------0-2-------2--0--|--2---0-2-0---2---0-2-0---|--2---0-----------2---0---|
----3--------3--------|----4-------4---4-------4-|----3-----------------2---|
--0-------------------|--0-----------------------|--0-----------------------|
----------------------|----------------------2---|--------------------------|


  S S S S E  S S E  E     E  E  Q    E  E     S S S S S S S S S S S S  
-----------------------|--0-----3----2-----|--0---------------0-----3-|
--1-------0--1------3--|--------0-------3--|------------3-------------|
------0-2------L-------|-----2--2-------0--|------2---------0-----2---|
----2------------0-----|-----3-------------|----2-----4---------------|
--0--------------------|--0----------------|--0-----0-----0-----0-----|
--------------------2--|-------------------|--------------------------|


  S S S S S S S S S S S S    S S S S S S S S S S S S  
--2---2-0---0-0---0---0-3-|--5-----------0-------5---|
----3-----3-----3---3-----|--0-----0-------0---------|
--------------------------|--5---5---5-------5-----5-|
--------2-----0---0---0---|--5-5-------5-------5-----|
--0-----3-----2---2---2---|--0-----------------------|
--------------------------|--------------------------|


  S S S S S S S S S S S S    S S S S S S S S S S S S  
--3-------2-------0-------|--0-------------------0---|
--3---3-------3-------3---|--1-----------1-----------|
--4-----4-------4---4-----|--0-----0-2-0---0---0-----|
--5-5-------5-----------5-|--2-2-4-----------4-----2-|
--0-----------------------|--0-----------------------|
--------------------------|--------------------------|


                                                     ^                 
  S S S S S S S S S S S S    S S S S S S E  E  E     Q    E  E  E  E   
--------------------------|-----------------------|--0----------------|
--3---------------------0-|--1-------0---1-----3--|--1----1-----------|
--0---0-----0-----0-------|--2---0-2-----2--0--0--|--2----2--0--2--0--|
--4-4-----2-----0-----0---|--3-3-------3-3--2--0--|--3----3--0--------|
--0-----3-----2-----------|-----------------------|--3-------2-----2--|
--------------------5-----|--3-----------------2--|--0-------2--------|


  S S S S S S S S S S S S    S S S S S S S  S S  S S S  
----------3---2-----------|----------3---3S-5----------|
--------0---3-3-----------|--------0---0------3S-5---0-|
--2-0---------------0-----|----0-----------------------|
------2---------0-4---4-0-|------2-----------------7---|
--0-----------------------|--0-------------------------|
----------------------0---|------------------------0---|
                           _____________________________
                          |1st ending
  S S S S S S S S S S S S    S S S S S S S S S S S S    
----------3---2-----------|----------------0---3-2-3--||
--------0---3-3-----------|--------0---3-----0---3----||
----0---------------0-----|----0---------0-----------*||
------2---------0-4---4-0-|------2---4---------------*||
--0-----------------------|--0------------------------||
----------------------0---|----------------------2----||
 __________________________
|2nd ending
  S S S S S S S S S S S S    S  S  H        E    
----------------0---3---7-|----10-12--------L--||
--------0---3-----0---3---|--0-----------------||
----0---------0-----------|--------9--------L--||
------2---4---------------|--------------------||
--0-----------------------|--------------------||
--------------------------|--------------------||




Duration Legend
---------------
W - whole
H - half
Q - quarter
E - 8th
S - 16th
T - 32nd
X - 64th
. - note dotted
|-n-|  - n-tuplets


Tablature Legend
----------------
L - tied note
> - accentuded note
S - shift slide
< - fade in
^ - brush up
comments
We did not receive enough feedback on this tab! Please rate:
print report bad tab
1 2 3 4 5
2 comments total.
+1 reply
gallagher2006 wrote on November 26 2008, 10:53 am

WIN =D

0 reply
Kyoh wrote on April 11 2009, 01:33 pm

Of course! A capo on 3rd, that's how you play the song! Haha, awesome tab.

I want to post or [tab]
guest
You may want to rate the tab now too:
select rating
Please do not post tabs as comments. Select "correction" instead!