Oops, an error
Loading. Please wait.

Jenovas Theme bass

version 1
version 1

Whole song

Interactive

412 views 1 this week
no commentswrite comment
1 2 3 4 5
3 more votes to show rating
add to favorites
×
Save as Personal and add changes to this tab that will be seen only by you. Learn more ›
×
You can save this tab as Personal to edit and correct it or add notes. All changes will be seen only by you. Learn more »
launch autoscroll
font size
0
reset
guitar tuner
edit
Autoscroll
slow
fast
+/-
esc
set tempo
stop
Difficulty
intermediate
J-E-N-O-V-A (Bass Line) From Final Fantasy VII by JVon76

Great song and an awesome bass line! Enjoy!

After the litte intro the bass starts with this:

Part 1  8x.
G----------3-2-------2-3-2---------|
D----3---3-----3---3-------3-2-----|
A--5---5---------5-------------3-0-|
E----------------------------------|

Part 2  Then This 2x.
G----------6-5-------5-6-5---------|
D----6---6-----6---6-------6-5-----|
A--8---8---------8-------------6---|
E--------------------------------8-|

Part 3   2x.
G----------------------------------|
D----------6-5-------5-6-5---------|
A----6---6-----6---6-------6-5-----|
E--8---8---------8-------------8-3-|

Part 4   2x.
G----------------------------------|
D----------3-2-------2-3-2---------|
A----3---3-----3---3-------3-2-----|
E--5---5---------5-------------3-0-|

Part 5   2x.
G----------5-4-------4-5-4---------|
D----5---5-----5---5-------5-4-----|
A--7---7---------7-------------5---|
E--------------------------------7-|

Part 6  2x.
G------------8-7--------7-8-7----------|
D-----8----8-----8----8-------8-7----0-|
A--10---10---------10-------------10---|
E--------------------------------------|

Then Back Up To Part 1 Again 2x.
G----------3-2-------2-3-2---------|
D----3---3-----3---3-------3-2-----|
A--5---5---------5-------------3-0-|
E----------------------------------|

After 2nd Time Play This
G-------|
D--3>---|
A-------|
E-------|

Then Play Part 3 2x.
Then Start The Whole Thing Over Again But
This Time Only Play Part 1 4x. Instead Of 8x.

            
            
Suggest correction
Creating personal tab
Creating personal tab
You can edit any tab online and save it as your Personal.

You can edit, replace or remove any tab part or add personal notes – all changes will be seen only by you.

Personal tabs can be accessed anytime from any device, even offline.
Learn more »
Give kudos to tab author, rate the tab!
1 2 3 4 5
comments
print report bad tab
guest
Wanna post a correction for this tab? Suggest correction