Oops, an error
Loading. Please wait.

Jenovas Theme tab

version 1
version 1

Whole song

Interactive

9,820 views 6 this week
3 commentsread comments
1 2 3 4 5
x 7
add to favorites
×
Save as Personal and add changes to this tab that will be seen only by you. Learn more ›
×
You can save this tab as Personal to edit and correct it or add notes. All changes will be seen only by you. Learn more »
launch autoscroll
font size
0
reset
how to read this tab
guitar tuner
edit
Autoscroll
slow
fast
+/-
esc
set tempo
stop
Author
                     -------------------------------------------------------------------------------
                             Jenova's theme - Nobuo Uematsu
-------------------------------------------------------------------------------
Tabbed by: sether
Email: Slag@satx.rr.com

Tuning:standard


e|--18-17-------------------|
B|-------18-15--------------| repeat 20x
G|------------15-14---------|
D|-----------------15-------|
A|--------------------17----|
E|--------------------------|

e|--16-15-----------------|
B|-------16-13------------|
G|------------13-12-------| repeat 4x
D|-----------------13-----|
A|-------------------15---|
E|------------------------|

e|--15-14------------------|
B|-------15-12-------------|
G|------------12-11--------| repeat 4x
D|-----------------12------|
A|-------------------14----|
E|-------------------------|

e|------------------------------------|
B|----------------------------8~--10~-|
G|-7~----9~---10~--7~--9~-10~---------|
D|------------------------------------|
A|------------------------------------|
E|------------------------------------|

e|-----------------------------------------------|
B|------------------------------------11~----13~-|
G|-10~---12~--13~----10~---12~--13~--------------|
D|-----------------------------------------------|
A|-----------------------------------------------|
E|-----------------------------------------------|

e|-------------------------------------------|
B|-13~--12~--10~----13~--12~--10~------------|
G|--------------------------------5~--7~--9~-|
D|-------------------------------------------|
A|-------------------------------------------|
E|-------------------------------------------|

e|--------------------------------------------|
B|-11~--10~--8~----11~--10~--8~---------------|
G|-------------------------------3~--5~--7~---|
D|--------------------------------------------|
A|--------------------------------------------|
E|--------------------------------------------|

thats it theres another part to it that sounds like a trumpet and i cant get the exact notes. but enjoy

| /  slide up
| \  slide down
| h  hammer-on
| p  pull-off
| ~  vibrato
| +  harmonic
| x  Mute note

            
            
Suggest correction
Creating personal tab
Creating personal tab
You can edit any tab online and save it as your Personal.

You can edit, replace or remove any tab part or add personal notes – all changes will be seen only by you.

Personal tabs can be accessed anytime from any device, even offline.
Learn more »
comments
print report bad tab
3 comments total.
0 reply
sabotagethefool 120 Jan 11, 2007 12:10 PM

This is REALLY impressive. You need to have fast hands for that first bit, unfortunately, I don't ;_; Working on my lead skills, this is a great one for that, I can hear it is right. I love to play the main bit lol. Love it, excellent!!! *****

0 reply
asdfjkl989 31 Apr 08, 2012 12:06 PM

My ears think that the trumpet goes something like this

B|----------------9579-121197-7-9----------------------------|
G|-9579-121197-----------------------------------------------|

0 reply
asdfjkl989 31 Apr 08, 2012 12:14 PM

actually make that:
e|-----------------------------------------------------------|
B|--------------------1281012-15141210-10-12-----------------|
G|-1281012-15141210------------------------------------------|
D|-----------------------------------------------------------|
A|-----------------------------------------------------------|
E|-----------------------------------------------------------|
sounds a little better I think, By the way awesome tab!

guest
You may want to rate the tab now too:
select rating
Wanna post a correction for this tab? Suggest correction