Oops, an error
Loading. Please wait.

One Winged Angel Tab

version 1
version 1

Whole song

Interactive

37,829 views 18 this week
6 commentsread comments
1 2 3 4 5
excellent!
x 6
add to favorites
launch autoscroll
font size
0
reset
how to read this tab
guitar tuner
Tab Pro tools
  • play this tab
  • loop segment
  • change instrument
  • show fretboard
  • metronome
Autoscroll
slow
fast
+/-
esc
set tempo
stop
Contributor
Difficulty
advanced
-------------------------------------------------------------------------------
         One Winged Angel: Advent Children Version - Uematsu Nobuo
-------------------------------------------------------------------------------
Tabbed by: Jorn Vandecaetsbeek
Email: jornvdcb@hotmail.com
Website: www.novacation.be

Tuning: EADGBe - Standard



Intro: 0:00 (Piano, violin, etc...)    

1 
e|-0-     -11-10-12-10- X4---|-0-   |----------------------------------------|
B|-x- X8  -------------------|-x- X8|----------------------------------------|
G|-3-     -------------------|-3-   |----------------------------------------|
D|-0-     -------------------|-0-   |--17p16p15-----------17p16p15--------- -|
A|----------------------------------------------17p16p15-----------17p16p15--|
E|---------------------------------------------------------------------------|

2
e|---------------------------------|-0-   |----------------------------------|
B|---------------------------------|-x- X4|----------------------------------|
G|---------------------------------|-3-   |--15------------------------------|
D|-17p16p15------------------------|-0-   |-----14-14---14-13-14-16----------|
A|----------17p16p15----------------------------------------------15---------|
E|-------------------14-15-16-17---------------------------------------------|

3
e|--------------0-0----------------------------------------------------------|
B|-7p6p5--------x-x--7p6p5---------------------------------------------------|
G|-------7p6p5--3-3--------7p6p5---------------------------------------------|
D|--------------0-0----------------------------------------------------------|
A|---------------------------------------------------------------------------|
E|---------------------------------------------------------------------------|

4
e|---------5---7-7-7-8-7-7-7-6---7-7-7-9--7-7-7-10---7-7-7-12----------------|
B|-7-8-8-8----------------------------------------------------12-12-12-11----|
G|---------------------------------------------------------------------------|
D|---------------------------------------------------------------------------|
A|---------------------------------------------------------------------------|
E|---------------------------------------------------------------------------|

5
e|---------------------------------------------------------------------------|
B|-12-12-12------------------------------------------------------------------|
G|---------------------------------------------------------------------------|
D|---------------------------------------------------------------------------|
A|---------------------------------------------------------------------------|
E|---------------------------------------------------------------------------|

And this is were the guitar should begin, this piece of the tab was created by
a guy named pencil, i don't know his real name so i think
http://spitalia.altervista.org/AdventOneWingedAngelTab.php
pasting his site is a good idea, visit it ;)
While playing this a hundred times i also found things on my own. So the
changes you can find down below.

00:39 - (you can use some hammer-ons and pull-offs if you think it sounds
better)

6
e|-----------------------------3-2------6-5-------9 (tremelobar down for the fadeout)|
B|-----------------------4-3-------2-3------5-6---------------------------- -|
G|--------------6-5----------2-----------------------------------------------|
D|--------7-6-------5-6------------------------------------------------------|
A|-5----------6--------------------------------------------------------------|
E|--5-6----------------------------------------------------------------------|

7
e|---------------------------------------------------------------------------|
B|-------------------7---------------------------------------9-9b------------|
G|-5---------------6----------5-------5------------------/8------------------|
D|-5-let ring----6------------5--5-7-----------------------------------------|
A|-5-----------5--------------5---------6~ ---4-4b---------------------------|
E|-5--------------------------5----------------------------------------------|

8
e|--------------------8-10~--------------------------------------------------|
B|------------------9--------------------------------------------------------|
G|-5-------------/8----------------------------------------------------------|
D|-5-let ring----------------------------------------------------------------|
A|-5-------------------------------------------------------------------------|
E|-5-------------------------------------------------------------------------|

9
e|-13p10---------------------------------------------------9h10h11-----------|
B|-------13p10-------13p10------------------------10h11-13-------------------|
G|-------------12p10------12p10-------12p10----12----------------------------|
D|0-----------------------------13p12-------13-------------------------------|
A|---------------------------------------------------------------------------|
E|---------------------------------------------------------------------------|

10                                01:10 - The Sephiroth Part
e|-11-12-13-14-15-16-15-16-17~ ----------------------------------------------|
B|---------------------------------------------------------------------------|
G|------------------------------------7-7-------7-7-------7-7\---------------|
D|------------------------------------7-7-------7-7-------7-7\ Slide Down----|
A|---------------------------------5--5-5----5--5-5----5--5-5\---------------|
E|---------------------------------5---------5---------5---------------------|


11          Play this 2 Times              Sephiroth   Sephiroth      
e|----------------------------------|-----------------------------------------|
B|---------------------11--------11-|-----------------------------------------|
G|-7-------7------------------------|-----------------------------------------|
D|-5-------5---------0-------0------|-------7----------7----------------------|
A|-5--5-5--5--5-5-------------------|-------5----------5----------------------|
E|----5-5-----5-5-------------------|-----------------------------------------|
And then play the whole bar 2 times


12
e|---------------------------------------------------------------------------|
B|---------------------------------------------------------------------------|
G|---------------------------------------------------------------------------|
D|---------------------------------------------------------------------------|
A|-1-1-1-1-1-1-1-1-1-1-1-1-1-1-1-1-1-1-1-1-1-1-1-1-1-1-1-1-1-1-1-1-----------|
E|---------------------------------------------------------------------------|

13
e|---------------------------------------------------------------------------|
B|---------------------------------------------------------------------------|
G|---------------------------------------------------------------------------|
D|---------------------------------------------------------------------------|
A|-1-1-1-1-1-1-1-1-----------------------------------------------------------|
E|---------------------------------------------------------------------------|


14          Play this 2 Times              Sephiroth   Sephiroth      
e|----------------------------------|-----------------------------------------|
B|---------------------11--------11-|-----------------------------------------|
G|-7-------7------------------------|-----------------------------------------|
D|-5-------5---------0-------0------|-------7----------7----------------------|
A|-5--5-5--5--5-5-------------------|-------5----------5----------------------|
E|----5-5-----5-5-------------------|-----------------------------------------|
And then play the whole bar 2 times

15
e|---------------------------------------------------------------------------|
B|---------------------------------------------------------------------------|
G|---------------------------------------------------------------------------|
D|---------------------------------------------------------------------------|
A|-2-2-2-2-3-3-3-3-4-4-4-4-5-5-5-5----3-(4)----------------------------------|
E|---------------------------------------------------------------------------|
                                      (pinch harmonics)


16
e|---------------------------------------------------------------------------|
B|---------------------------------------------------------------------------|
G|---------------------------------------------------------------------------|
D|-2----2----2----2----2----2----4----4----4----4----4----4----4----4--------|
A|---2----2----2----2----2----2----2----2----2----2----2----2----2----2------|
E|---------------------------------------------------------------------------|

17
e|------------------6--------------------------------------------------------|
B|--------5----8-5-----8~~(let ring)-----------------------------------------|
G|---4------4----------------------------------------------------------------|
D|-2---5---------------------------------------------------------------------|
A|---------------------------------------------------------------------------|
E|---------------------------------------------------------------------------|

18
e|-8-7-6-7 (let ring)---8-7-10-9-8-7 (let ring & fade out)-------------------|
B|---------------------------------------------------------------------------|
G|---------------------------------------------------------------------------|
D|---------------------------------------------------------------------------|
A|---------------------------------------------------------------------------|
E|---------------------------------------------------------------------------|

19
e|------------------6b7---(6)-6r-6------------6b7 6r-0 (let ring)------------|
B|----------------------------------8-7-6--5---------------------------------|
G|---------------------------------------------------------------------------|
D|-2-(let ring)--------------------------------------------------------------|
A|-2-          --------------------------------------------------------------|
E|-0-          --------------------------------------------------------------|

20
e|--11b12r11----12h14p12----12h15p12----12h17p12----12h15p12----12h14p12-12--|
B|---------------------- 15----------15----------15----------15--------------|
G|---------------------------------------------------------------------------|
D|---------------------------------------------------------------------------|
A|---------------------------------------------------------------------------|
E|---------------------------------------------------------------------------|

21
e|---------------------------------------------------------------------------|
B|-12------------------------------------------------------------------------|
G|----14-12-14-12------------------------------------------------------------|
D|----------------16----14-14--17--16--15-14 (bend half note and release)----|
A|---------------------------------------------------------------------------|
E|---------------------------------------------------------------------------|

22
e|---------------------------------------------------------------------------|
B|---------------------------------------------------------------------------|
G|---------------------------------------------------------------------------|
D|------------/9-(let ring and slide back down)------------------------------|
A|------------/7-------------------------------------------------------------|
E|-slide up   /7-------------------------------------------------------------|



03:14 - The great 'Veni Mi Fili' Part

23
e|---------------------------------------------------------------------------|
B|---------------------------------------------------------------------------|
G|---------------------------------------------------------------------------|
D|---------------------------------------------------------------------------|
A|---------------------------------------------------------------------------|
E|-0-0-0-0-0-0-0-0-0-0-0-0-0-0-0-0-0-0-0-0-0-0-5^-0-0-0-0-6^-----------------|

24
e|---------------------------------------------------------------------------|
B|---------------------------------------------------------------------------|
G|---------------------------------------------------------------------------|
D|---------------------------------------------------------------------------|
A|---------------------------------------------------------------------------|
E|-0-0-0-0-0-0-0-0-0-0-0-0-0-0-0-0-0-0-0-0-0-0-0-0-0-0-0-0-0-0-0-0-----------|

25
e|---------------------------------------------------------------------------|
B|---------------------------------------------------------------------------|
G|---------------------------------------------------------------------------|
D|---------------------------------------------------------------------------|
A|---------------------------------------------------------------------------|
E|-0-0-0-0-0-0-0-0-0-0-0-0-0-0-0-0-0-0-0-0-0-0-5^-0-0-0-0-6^-----------------|

26
e|---------------------------------------------------------------------------|
B|---------------------------------------------------------------------------|
G|---------------------------------------------------------------------------|
D|---------------------------------------------------------------------------|
A|---------------------------------------------------------------------------|
E|-0-0-0-0-0-0-0-0-0-0-0-0-0-0-0-0-0-0-0-0-0-0-0-0-0-0-0-0-0-0-0-0-----------|

27
e|---------------------------------------------------------------------------|
B|---------------------------------------------------------------------------|
G|---------------------------------------------------------------------------|
D|---------------------------------------------------------------------------|
A|---------------------------------------------------------------------------|
E|-0-0-0-0-0-0-0-0-0-0-0-0-0-0-0-0-0-0-0-0-0-0-0-0-0-0-0-0-0-0-0-0-----------|

28
e|---------------------------------------------------------------------------|
B|---------------------------------------------------------------------------|
G|---------------------------------------------------------------------------|
D|---------------------------------------------------------------------------|
A|---------------------------------------------------------------------------|
E|-0-0-0-0-0-0-0-0-0-0-0-0-0-0-0-0-0-0-0-0-0-0-5^-0-0-0-0-6^-----------------|

Keep repeating 27 and 28 untill the next part comes at 04:01


29
e|---------------------------------------------------------------------------|
B|---------------------------------------------------------------------------|
G|---------------------------------------------------------------------------|
D|---------------------------------------------------------------------------|
A|-----------------------------------------------------4^------5^------------|
E|-3-3-3-3-3-3-3-3-3-3-3-3-3-3-3-3-3-3-3-3-3-3-3-3-3-3-----3-3---------------|

Keep repeating 29, 3 times. And At The Last One:


30
e|---------------------------------------------------------------------------|
B|---------------------------------------------------------------------------|
G|---------------------------------------------------------------------------|
D|---------------------------------------------------------------------------|
A|-----------------------------------------------------4^------4^------------|
E|-3-3-3-3-3-3-3-3-3-3-3-3-3-3-3-3-3-3-3-3-3-3-3-3-3-3-----3-3---------------|

31
e|---------------------------------------------------------------------------|
B|---------------------------------------------------------------------------|
G|---------------------------------------------------------------------------|
D|-6-4-(4^)------------------------------------------------------------------|
A|---------------------------------------------------------------------------|
E|---------------------------------------------------------------------------|

32
e|-13b14-12------------------------------------------------------------------|
B|----------15-14-12---------------------------------------------------------|
G|-------------------14-12-11------------------------------------------------|
D|----------------------------14-12-11---------------------------------------|
A|-------------------------------------14-12---------------------------------|
E|-------------------------------------------15-14-12-10-9-7-5-3-2-----------|

33
e|---------------------------------------------------------------------------|
B|---------------------------------------------------------------------------|
G|-------------11---------14--12---------------------------------------------|
D|-------11-12----12-14----------15-14-12----12------------------------------|
A|-2-/14----------------------------------15----12*--------------------------|
E|--------------------------------------(*bend two times 1-1/2 and then full)|

34
e|------------------14-------------------------------------------------------|
B|-----14-------12-----------------------------------------------------------|
G|-11------------------------------------------------------------------------|
D|---------------------------------------------------------------------------|
A|---------------------------------------------------------------------------|
E|---------------------------------------------------------------------------|

35
e|-/17-16-14-12----14-12-------------12--------------------------------------|
B|--------------15-------15-14-12-14----15-14-12----12-----------------------|
G|-----------------------------------------------14--------------------------|
D|---------------------------------------------------------------------------|
A|---------------------------------------------------------------------------|
E|---------------------------------------------------------------------------|

36
e|---------------------------------------------------------------------------|
B|---------------------------------------------------------------------------|
G|-14-13----12-11-------11b12-11---------------------------------------------|
D|-------14-------14-12----------14-12-14-12---------------------------------|
A|-------------------------------------------14*-----------------------------|
E|-------------------------(*let ring and press Tremelo bar two times down)--|





And from this part one i improvised a bit
05:12 - The outro

37
e|---------------------------------------------------------------------------|
B|---------------------------------------------------------------------------|
G|---------------------------------------------------------------------------|
D|---------------------------------------------------------------------------|
A|---------------------------------------------------------------------------|
E|-10-11-10-11-10-13-10------------------------------------------------------|

38  (everytime they say sephiroth and at 05:50)
e|---------------------------------------------------------------------------|
B|---------------------------------------------------------------------------|
G|---------------------------------------------------------------------------|
D|---------------------------------------------------------------------------|
A|--17^-------------------------------------------------------------------------|
E|---------------------------------------------------------------------------|



-My Ideas-

11 - Everytime they sing sephiroth you could maybe slide into:
e|---------------------------------------------------------------------------|
B|---------------------------------------------------------------------------|
G|--3/7----------------------------------------------------------------------|
D|--3/7----------------------------------------------------------------------|
A|--1/5 (let ring a bit)-----------------------------------------------------|
E|---------------------------------------------------------------------------|


23 - When playing the fast C part and pinching the harmonics it didn't sound
right so maybe it's best you lower them down on the A String like this:
e|---------------------------------------------------------------------------|
B|---------------------------------------------------------------------------|
G|---------------------------------------------------------------------------|
D|---------------------------------------------------------------------------|
A|---------------------------------------------0^---------1^-----------------|
E|-0-0-0-0-0-0-0-0-0-0-0-0-0-0-0-0-0-0-0-0-0-0----0-0-0-0--------------------|

That way the C (0) keeps ringing and You can play it with ease


29 - i play it a bit different at the end
e|---------------------------------------------------------------------------|
B|---------------------------------------------------------------------------|
G|---------------------------------------------------------------------------|
D|--------------------------------------------------------------5^-----------|
A|-----------------------------------------------------5^--------------------|
E|-3-3-3-3-3-3-3-3-3-3-3-3-3-3-3-3-3-3-3-3-3-3-3-3-3-3-----3-3---------------|


In general i used my tremolo bar a lot.
Well that was it, if you have any questions plz mail them ;) or check the site
this tab is maybe not 100% but it sounds right


Tablature Legend
----------------
 h   - hammer-on
 p   - pull-off
 b   - bend
 pb  - pre-bend
 r   - bend release (if no number after the r, then release immediately)
 /\  - slide into or out of (from/to "nowhere")
 s   - legato slide
 S   - shift slide
  - natural harmonic
[n]  - artificial harmonic
n(n) - tapped harmonic
^    - Pinch Harmonic
 ~   - vibrato
 tr  - trill
 T   - tap
 TP  - trem. picking
 PM  - palm muting
\n/  - tremolo bar dip; n = amount to dip
 \n  - tremolo bar down
 n/  - tremolo bar up
/n\  - tremolo bar inverted dip
 =   - hold bend; also acts as connecting device for hammers/pulls
 <>  - volume swell (louder/softer)
 x   - on rhythm slash represents muted slash
 o   - on rhythm slash represents single note slash
===============================================================================
comments
print report bad tab
6 comments total. Showing first comments.
0 reply
devell wrote on March 27 2007, 02:19 am

i adore you man.. And Pencil.. I watched ur vid on youtube.. Awesome job man :D Perfect enough tab for me :)

0 reply
metal_head_9191 wrote on August 8 2007, 09:52 pm

the first chord doesnt sound right
this did not rock

0 reply
Mossad17 wrote on August 16 2007, 09:24 am

I WANNA B IN U THIS TAB IS AMAZING

I want to post or [tab]
guest
You may want to rate the tab now too:
select rating
Please do not post tabs as comments. Select "correction" instead!