Oops, an error
Loading. Please wait.

Oppressed People bass

version 1
version 1

Whole song

Interactive

1,282 views 6 this week
no commentswrite comment
1 2 3 4 5
1 last vote to show rating
add to favorites
×
Save as Personal and add changes to this tab that will be seen only by you. Learn more ›
×
You can save this tab as Personal to edit and correct it or add notes. All changes will be seen only by you. Learn more »
launch autoscroll
font size
0
reset
guitar tuner
edit
Autoscroll
slow
fast
+/-
esc
set tempo
stop
Author
-------------------------------------------------------------------------------
		       Oppressed People - Final Fantasy VII
-------------------------------------------------------------------------------

Oppressed People (Mall Market Theme)
Final Fantasy VII
Nobuo Uematsu

Tabbed By : Tommy (Ockeroid)
e-mail: ockeroid@hotmail.com

Tuning: Standard (EADG)

Part 1 - Main Part
G|--------------------------|-------------------------|
D|*-------------------------|-------------------------|
A|*--1-----1----------------|--------------2----------|
E|---------------1----------|--2-----2----------------|
 
G|--------------------------|-------------------------|
D|--------------------------|------------------------*|
A|-----1-----1--------------|--------------2---------*|
E|--------------1-----1-----|--2-----2----------------| x4


Part 2 - Bridge
G|-------------------|------------------------|
D|*------------------|------------------------|
A|*-1----------------|----------0--3--3-------|
E|-------------------|------------------------|

G|-------------------|------------------------|
D|-------------------|-----------------------*|
A|--1----------------|-----------------------*|
E|-------------------|-------2---------4------| x2


Rest x3 Bars


Part 3 - Bass Duel
G|-----------------------------|-----------------------------|
D|*----------------------------|-----------------------------|
A|*-1-----1--1-----1-----------|--------------2-----------2--|
E|--------------1-----------1--|--2-----2--1-----2-----------|

                |--3--|  |--3--|
G|--------------------------------|-----------------------------|
D|--------------------------------|----------------------------*|
A|-----1-----1-----1--------1-----|--------------2-----------2-*|
E|--------------1-----1--1-----1--|--2--1--2--1-----2-----------| x2


Part 3a - End
G|-----------------------------|
D|*---------------------------*|
A|*-------------2-----------2-*|
E|--2-----2--1-----2-----------| x4


Structure
 Part 1 - x4
 Part 2 - x2
 Rest - x3 Bars
 Part 3 - x2
 Part 3a - x4
 Repeat
                                                                       28.08.07
===============================================================================

            
            
Suggest correction
Creating personal tab
Creating personal tab
You can edit any tab online and save it as your Personal.

You can edit, replace or remove any tab part or add personal notes – all changes will be seen only by you.

Personal tabs can be accessed anytime from any device, even offline.
Learn more »
Give kudos to tab author, rate the tab!
1 2 3 4 5
comments
print report bad tab
guest
You may want to rate the tab now too:
select rating
Wanna post a correction for this tab? Suggest correction