Oops, an error
Loading. Please wait.

Suteki Da Ne tab

version 3
version 3

Whole song

Interactive

268 views 6 this week
no commentswrite comment
1 2 3 4 5
3 more votes to show rating
add to favorites
×
Save as Personal and add changes to this tab that will be seen only by you. Learn more ›
×
You can save this tab as Personal to edit and correct it or add notes. All changes will be seen only by you. Learn more »
launch autoscroll
font size
0
reset
how to read this tab
guitar tuner
edit
Autoscroll
slow
fast
+/-
esc
set tempo
stop
Author
Difficulty
About this tab version
It's close to the most "full" version you'll find. Was this info helpful? Yes No
FFX - Suteki Da Ne

Intro:

e|----8-----7-----|5-----3-3-------|----------------|0-------7-----7-|0-------------0-|
A|5-6-----------8-|----------------|0---------------|----1-------0---|------------3---|
D|------7-9---5---|--4-5-----------|0---------------|--2---2---0-----|----2-----2-----|
G|7---5-----------|----------------|----------------|----------------|--3---3-2-------|
B|--------8---7---|5---------------|----------------|----------------|----------------|
E|----------------|----------------|0---------------|----------------|----------------|

e|----0-----------|0-----1-0-------|/5-----0.5.7-----10|8---7---5---8-10|10--------------|
A|--------3---0---|----1---0-------|---------------0---|----------------|10--------------|
D|2-------------0-|--0-----2---1---|-----5-------0-----|--0---0---5-5---|10--------------|
G|3-------3-------|----------------|---3---------------|----------------|0---------------|
B|5---------------|3---------------|-------------------|7-------0-------|----------------|
E|--------3-------|--------0-------|-------------------|----------------|----------------|

e|--0-0-8-7---0---|8-7-5---5-------|--------5-------|----------------|
A|--------0-------|------8-----5---|----5-------5---|----5-----------|
D|7-------0-------|----------5---5-|--5---5---5---5-|--5---5---------|
G|----------------|----------------|7---------------|7---------------|
B|----------------|--------0-------|--------0-------|----------------|
E|--------0-------|----------------|----------------|----------------|

Verse:

e||:----------------|0---1-0---------|0---------------|----------------|
A||:----0-1-0---1-3-|--------3-------|----3-1-0-------|1---0-----------|
D||:2---------------|--0-0-----------|--0-0-------0---|------2-0-------|
G||:--2-2-----------|----------------|----------0---0-|--2-2-------2---|
B||:0---------------|3---------0-2---|3---------------|0---------2---2-|
E||:--------3-------|--------3-------|--------3-------|--------0-------|

e|----------------|0---1-0---------|0---------------|----------------|
A|----0-1-0---1-3-|--------3-------|----3-1-0-------|----------------|
D|2---------------|--0-0-----------|--2-2-------0---|0-2-2-------2---|
G|--2-2-----0-0---|----------------|----------0-0---|0---------4-----|
B|0---------------|3---------0-2---|----------------|--------5-------|
E|--------3-------|--------3-------|1-------3-------|----------------|

e|----------------|0---1-0---------|0---------------|----------------|
A|----0-1-0---1-3-|--------3-------|----3-1-0-------|1---0-----------|
D|2---------------|--0-0-----------|--0-0-------0---|------2-0-------|
G|--2-2-----0-0---|----------------|----------0---0-|--2-2-------2---|
B|0---------------|3---------0-2---|3---------------|0---------2---2-|
E|--------3-------|--------3-------|--------3-------|--------0-------|

e|----------------|0---1-0---------|0---------------|----------------|
A|----0-1-0---1-3-|--------3-------|----3-1-0-------|----------------|
D|2---------------|--0-0-----------|--2-2-------0---|0-2-2-----------|
G|--2-2-----0-0---|----------------|----------0-0---|2---------------|
B|0---------------|3---------0-2---|----------------|0---------------|
E|--------3-------|--------3-------|1-------3-------|----------------|

Bridge:

e|8--10---8---7-7-|5---5-3---------|
A|8---8-----------|------0---------|
D|7---7---8---7-7-|5---5-----------|
G|--------7---5-5-|3---3-2---------|
B|----------------|----------------|
E|----------------|----------------|

Chorus:

e|--------0---3---|--------0-------|--------0---3---|----------------|
A|----1-3-1---1---|3-------1---3-1-|--1-1-3-1---1---|3---1-0---------|
D|----2-----0---0-|----0-----------|2---------0---0-|----0---2-------|
G|----------------|--0---0---2-2---|----------------|--0-----2-------|
B|--------3-------|--------0-------|--------3-------|----------------|
E|----3-----------|3---------------|1---------------|3-------1----1-1|

e|--------0---3---|--------0-------|--------0---3---|7---3---5-------|----------------|
A|----1-3-1---1---|3-------1---3-1-|--1-1-3-1---1---|----0-------5---|----5-----------|
D|----2-----0---0-|----0---2-------|2---------0---4-|--0---0---5---5-|--5---5---------|
G|----------------|--0---0---2-2---|----------------|--------3-------|3-------3-------|
B|--------3-------|--------0-------|--------3-------|----------------|----------------|
E|----3-----------|3---------------|1---------------|3---------------|----------------|

e|----5---3---1---|0---------------|----3---0-------|
A|----------------|----0-------0---|----0-------0---|
D|----------------|--0---0---0---0-|--0---0---0---0-|
G|----------------|----------------|----------------|
B|----------------|----------------|----------------|
E|----------------|0-------0-------|0---------------|

e|----------------|----0-----------|--0-----------0-||
A|--1-1-----------|--------3---1---|3-----------0-0-||
D|2-----------2---|--2---2---2---2-|----0-----0---0-||
G|----------3---3-|----------------|--------2-------||
B|----------------|----------------|----------------||
E|1-------1-------|1---------------|0-----0-------0-||

(first time through)

e|--------7---3---|5----------------|----------------|----------------|0---------------:|
A|----5-----------|----5---0---3p1p0|1-------0-------|1-------0-------|----10-----(12)-:|
D|----------------|--5---5-0---0----|----2-------2---|----2-------2---|--2-----2-------:|
G|----------------|3-------0---0----|--2---2---3---3-|--2---2---3---3-|----------------:|
B|----------------|-----------------|0-------0-------|0-------0-------|0---------------:|
E|----------------|------------3----|----------------|----------------|----------------:|

Repeat from Verse through Chorus)

(second time through)

e|--------7---3---|5---------------|--------0-------|--------0-------|--------0-------|
A|----5-----------|----5-------5---|----0-------0---|------0-------0-|------0-------0-|
D|----------------|--5---5---5---5-|--2---2---2---2-|----5-------5---|----5-------5---|
G|----------------|3-------3-------|0---------------|--7-------7-----|--7-------7-----|
B|----------------|----------------|----------------|0---------------|0---------------|
E|----------------|----------------|----------------|----------------|----------------|

Outro:

e|----8-----7-----|5-----3-1-----0-|0---------------|
A|5-6-----------8-|--0-1-----------|0---------------|
D|------7-9---5---|----------0-1---|2---------------|
G|7---5-----------|0---2-----------|2---------------|
B|--------8---7---|------------2---|0---------------|
E|----------------|--------0-------|----------------|

End

***********************************

| p   Pull-Off
| /   Slide-up
| ()  Harmonics
| .   Eighth Notes

***********************************

Thanks... Let me know what you think... And check out my Youtube for random Videos.
http://www.youtube.com/c/MatthewNguyen

            
            
Suggest correction
Creating personal tab
Creating personal tab
You can edit any tab online and save it as your Personal.

You can edit, replace or remove any tab part or add personal notes – all changes will be seen only by you.

Personal tabs can be accessed anytime from any device, even offline.
Learn more »
Give kudos to tab author, rate the tab!
1 2 3 4 5
comments
print report bad tab
guest
You may want to rate the tab now too:
select rating
Wanna post a correction for this tab? Suggest correction