Oops, an error
Loading. Please wait.

R.i.p intro tab

117 views 1 this week
1 commentread comment
1 2 3 4 5
2 more votes to show rating
add to favorites
×
Save as Personal and add changes to this tab that will be seen only by you. Learn more ›
×
You can save this tab as Personal to edit and correct it or add notes. All changes will be seen only by you. Learn more »
launch autoscroll
font size
0
reset
how to read this tab
guitar tuner
edit
Autoscroll
slow
fast
+/-
esc
set tempo
stop
Author
Difficulty
-------------------------------------------------------------------------------
                              R.I.P. - Nocreeps
-------------------------------------------------------------------------------
Tabbed by: tripleclutch

There are no tabs for this song all over the web, so I decided to take up the challenge and tab the intro 
myself. 
I think its a great song, although a sad one, and the intro builds up the beauty of the song for the listener
to enjoy the rest of it.
This is my first tab, and I'm yet to complete a year as a guitarist. Please do comment guys!

Tuning: Standard (E A D G B e)


[INTRO]

Part #1 [00:00 - 00:16]
Guitar 1: Acoustic Guitar
e|---------------------------------------------------------------------------|
B|---------------------------------------------------------------------------|
G|---------------------------------------------------------------------------|
D|--------15--------14--------12--------14--------12\----10------8-----------|
A|-----12-----12--------12--------12--------12------\--8-----8------8---8~---|
E|--10-----------10--------10--------10--------10---\6---------6------6------|

e|---------------------------------------------------------------------------|
B|---------------------------------------------------------------------------|
G|---------------------------------------------------------------------------|
D|------5------3------2------3--------------7-----------------8--------10----|
A|----3----3------3------3------3---3-----7----7---8-7------8---8---10----10-|
E|--1--------1------1------1------1---3-5--------5-----5--6-------8----------|

Guitar 2: Electric Guitar (Overdrive)
e|---------------------------------------------------------------------------|
B|---------------------------------------------------------------------------|
G|---------------------------------------------------------------------------|
D|--------15--------14--------12--------14--------12\----10------8-----------|
A|-----12-----12--------12--------12--------12------\--8-----8------8---8~---|
E|--10-----------10--------10--------10--------10---\6---------6------6------|
      x x      x  x      x  x      x  x      x  x    x x     x x    x x

e|---------------------------------------------------------------------------|
B|---------------------------------------------------------------------------|
G|---------------------------------------------------------------------------|
D|------5------3------2------3--------------7-----------------8--------10----|
A|----3----3------3------3------3---3-----7----7---8-7------8---8---10----10-|
E|--1--------1------1------1------1---3-5--------5-----5--6-------8----------|
    x x x  x x x  x x x  x x x  x x x x x x    x x   x x     



Part #2 [00:16 - 00:32]
Guitar 1
e|---------------------------------------------------------------------------|
B|---------------------------------------------------------------------------|
G|---------------------------------------------------------------------------|
D|--------15--------14--------12--------14--------12\----10------8-----------|
A|-----12-----12--------12--------12--------12------\--8-----8------8---8~---|
E|--10-----------10--------10--------10--------10---\6---------6------6------|

e|---------------------------------------------------------------------------|
B|---------------------------------------------------------------------------|
G|---------------------------------------------------------------------------|
D|------5------3------2------3--------------7-----------------8--------10----|
A|----3----3------3------3------3---3-----7----7---8-7------8---8---10----10-|
E|--1--------1------1------1------1---3-5--------5-----5--6-------8----------|

Guitar 2
e|---------------------------------------------------------------------------|
B|---------------------------------------------------------------------------|
G|---------------------------------------------------------------------------|
D|--------15--------14--------12--------14--------12\----10------8-----------|
A|-----12-----12--------12--------12--------12------\--8-----8------8---8~---|
E|--10-----------10--------10--------10--------10---\6---------6------6------|
      x x      x  x      x  x      x  x      x  x    x x     x x    x x

e|---------------------------------------------------------------------------|
B|---------------------------------------------------------------------------|
G|---------------------------------------------------------------------------|
D|------5------3------2------3--------------7-----------------8--------10----|
A|----3----3------3------3------3---3-----7----7---8-7------8---8---10----10-|
E|--1--------1------1------1------1---3-5--------5-----5--6-------8----------|
    x x x  x x x  x x x  x x x  x x x x x x    x x   x x     



Part #3 [00:32 - 00:48]
Guitar 1
e|---------------------------------------------------------------------------|
B|---------------------------------------------------------------------------|
G|---------------------------------------------------------------------------|
D|--------15--------14--------12--------14--------12\----10------8-----------|
A|-----12-----12--------12--------12--------12------\--8-----8------8---8~---|
E|--10-----------10--------10--------10--------10---\6---------6------6------|

e|---------------------------------------------------------------------------|
B|---------------------------------------------------------------------------|
G|---------------------------------------------------------------------------|
D|------5------3------2------3--------------7-----------------8--------10----|
A|----3----3------3------3------3---3-----7----7---8-7------8---8---10----10-|
E|--1--------1------1------1------1---3-5--------5-----5--6-------8----------|

Guitar 2
e|---------------------------------------------------------------------------|
B|---------------------------------------------------------------------------|
G|---------------------------------------------------------------------------|
D|--------15--------14--------12--------14--------12\----10------8-----------|
A|-----12-----12--------12--------12--------12------\--8-----8------8---8~---|
E|--10-----------10--------10--------10--------10---\6---------6------6------|
      x x      x  x      x  x      x  x      x  x    x x     x x    x x

e|---------------------------------------------------------------------------|
B|---------------------------------------------------------------------------|
G|---------------------------------------------------------------------------|
D|------5------3------2------3--------------7-----------------8--------10----|
A|----3----3------3------3------3---3-----7----7---8-7------8---8---10----10-|
E|--1--------1------1------1------1---3-5--------5-----5--6-------8----------|
    x x x  x x x  x x x  x x x  x x x x x x    x x   x x     



Part #4 [00:48 - 01:04]
Guitar 1: Acoustic Guitar
e|---------------------------------------------------------------------------|
B|---------------------------------------------------------------------------|
G|---------------------------------------------------------------------------|
D|----------15--------14--------12--------14--------12\----10------8---------|
A|-------12-----12--------12--------12--------12------\--8-----8------8---8~-|
E|----10-----------10--------10--------10--------10---\6---------6------6----|

e|---------------------------------------------------------------------------|
B|---------------------------------------------------------------------------|
G|---------------------------------------------------------------------------|
D|--------5------3------2------3--------------7-----------------8--------10--|
A|------3----3------3------3------3---3-----7----7---8-7------8---8---10----10-|
E|----1--------1------1------1------1---3-5--------5-----5--6-------8--------|

Guitar 2: Electric Guitar (Overdrive)
e|---------------------------------------------------------------------------|
B|---------------------------------------------------------------------------|
G|---------------------------------------------------------------------------|
D|----------15--------14--------12--------14--------12\----10------8---------|
A|-------12-----12--------12--------12--------12------\--8-----8------8---8~-|
E|----10-----------10--------10--------10--------10---\6---------6------6----|
       x  x      x  x      x  x      x  x      x  x    x x     x x    x x

e|---------------------------------------------------------------------------|
B|---------------------------------------------------------------------------|
G|---------------------------------------------------------------------------|
D|--------5------3------2------3--------------7-----------------8--------10--|
A|------3----3------3------3------3---3-----7----7---8-7------8---8---10----10-|
E|----1--------1------1------1------1---3-5--------5-----5--6-------8--------|
    x x x  x x x  x x x  x x x  x x x x x x    x x   x x     

Guitar 3: Electric Guitar (Distortion)
e|---------------------------------------------------------------------------|
B|---------------------------------------------------------------------------|
G|---------------------------------------------------------------------------|
D|12-12------------------------------------------------8---------------------|
A|12-12------------------------------------------------8---------------------|
E|10-10------------------------------------------------6---------------------|

e|---------------------------------------------------------------------------|
B|---------------------------------------------------------------------------|
G|---------------------------------------------------------------------------|
D|-3-3------------------------------------7-7-------------7-8------9-10------|
A|-3-3------------------------------------7-7-------------7-8------9-10------|
E|-1-1------------------------------------5-5-------------5-6------6--8------|



Part #5 [01:04 - 01:19]
Guitar 1: Acoustic Guitar
e|---------------------------------------------------------------------------|
B|---------------------------------------------------------------------------|
G|---------------------------------------------------------------------------|
D|----------15--------14--------12--------14--------12\----10------8---------|
A|-------12-----12--------12--------12--------12------\--8-----8------8---8~-|
E|----10-----------10--------10--------10--------10---\6---------6------6----|

e|---------------------------------------------------------------------------|
B|---------------------------------------------------------------------------|
G|---------------------------------------------------------------------------|
D|--------5------3------2------3--------------7-----------------8--------10--|
A|------3----3------3------3------3---3-----7----7---8-7------8---8---10----10-|
E|----1--------1------1------1------1---3-5--------5-----5--6-------8--------|

Guitar 2: Electric Guitar (Overdrive)
e|---------------------------------------------------------------------------|
B|---------------------------------------------------------------------------|
G|---------------------------------------------------------------------------|
D|----------15--------14--------12--------14--------12\----10------8---------|
A|-------12-----12--------12--------12--------12------\--8-----8------8---8~-|
E|----10-----------10--------10--------10--------10---\6---------6------6----|
       x  x      x  x      x  x      x  x      x  x    x x     x x    x x

e|---------------------------------------------------------------------------|
B|---------------------------------------------------------------------------|
G|---------------------------------------------------------------------------|
D|--------5------3------2------3--------------7-----------------8--------10--|
A|------3----3------3------3------3---3-----7----7---8-7------8---8---10----10-|
E|----1--------1------1------1------1---3-5--------5-----5--6-------8--------|
    x x x  x x x  x x x  x x x  x x x x x x    x x   x x     

Guitar 3: Electric Guitar (Distortion)
e|---------------------------------------------------------------------------|
B|---------------------------------------------------------------------------|
G|---------------------------------------------------------------------------|
D|10-12---------------------------------------------12\8---------------------|
A|10-12---------------------------------------------12\8---------------------|
E|-8-10---------------------------------------------10\6---------------------|

e|---------------------------------------------------------------------------|
B|---------------------------------------------------------------------------|
G|---------------------------------------------------------------------------|
D|-3-3------------------------------------7-7-7-7-7-7-7-7-7-8-8-8-8-10-10-10-10-|
A|-3-3------------------------------------7-7-7-7-7-7-7-7-7-8-8-8-8-10-10-10-10-|
E|-1-1------------------------------------5-5-5-5-5-5-5-5-5-6-6-6-6-8--8--8--8--|
                                              x x x x x x     x x      x  x



Part #6 [01:19 - 01:49]
Guitar 3: Electric Guitar (Distortion)
e|-------------------------------------------------------------------------------|
B|-------------------------------------------------------------------------------|
G|-------------------------------------------------------------------------------|
D|12-12-12-12-12-12-12-12-12-12-12-12-12-12-12-12\8-8-8-8-8-8-8-8-8-8-8-8-8-8-8--|
A|12-12-12-12-12-12-12-12-12-12-12-12-12-12-12-12\8-8-8-8-8-8-8-8-8-8-8-8-8-8-8--|
E|10-10-10-10-10-10-10-10-10-10-10-10-10-10-10-10\6-6-6-6-6-6-6-6-6-6-6-6-6-6-6--|
      x  x     x  x     x  x     x  x     x  x    x x   x x   x x   x x   x x

e|---------------------------------------------------------------------------|
B|---------------------------------------------------------------------------|
G|---------------------------------------------------------------------------|
D|-3-3-3-3-3-3-3-3-3-3-3-3-3-3-3/7-7-7-7-7-7-7-7-8-8-8-8-10-10-10-10---------|
A|-3-3-3-3-3-3-3-3-3-3-3-3-3-3-3/7-7-7-7-7-7-7-7-8-8-8-8-10-10-10-10---------|
E|-1-1-1-1-1-1-1-1-1-1-1-1-1-1-1/5-5-5-5-5-5-5-5-6-6-6-6-8--8--8--8----------|
   x x   x x   x x   x x   x x   x x   x x   x x x x   x x  x     x

e|-------------------------------------------------------------------------------|
B|-------------------------------------------------------------------------------|
G|-------------------------------------------------------------------------------|
D|12-12-12-12-12-12-12-12-12-12-12-12-12-12-12-12\8-8-8-8-8-8-8-8-8-8-8-8-8-8-8--|
A|12-12-12-12-12-12-12-12-12-12-12-12-12-12-12-12\8-8-8-8-8-8-8-8-8-8-8-8-8-8-8--|
E|10-10-10-10-10-10-10-10-10-10-10-10-10-10-10-10\6-6-6-6-6-6-6-6-6-6-6-6-6-6-6--|
      x  x     x  x     x  x     x  x     x  x    x x   x x   x x   x x   x x

e|---------------------------------------------------------------------------|
B|---------------------------------------------------------------------------|
G|---------------------------------------------------------------------------|
D|\3-3-3-3-3-3-3-3-3-3-3-3-3-3-3-3-7-7-7-7-7-8--10~~-------------------------|
A|\3-3-3-3-3-3-3-3-3-3-3-3-3-3-3-3-7-7-7-7-7-8--10~~-------------------------|
E|\1-1-1-1-1-1-1-1-1-1-1-1-1-1-1-1-5-5-5-5-5-6--8~~~-------------------------|
   x x   x x   x x   x x   x x   x       x x



                                     *** Hope you guys liked it! ***

*************************************************************************************************************

| /   slide up
| \   slide down
| h   hammer-on
| p   pull-off
| ~   vibrato
| +   harmonic
| x   Mute note
| b   Bend
| pb  Pre-bend
| br  Bend release
| pbr Pre-bend release
| brb Bend release bend

*************************************************************************************************************

            
            
Suggest correction
Creating personal tab
Creating personal tab
You can edit any tab online and save it as your Personal.

You can edit, replace or remove any tab part or add personal notes – all changes will be seen only by you.

Personal tabs can be accessed anytime from any device, even offline.
Learn more »
Give kudos to tab author, rate the tab!
1 2 3 4 5
comments
print report bad tab
1 comment total.
0 reply
asmoth360 60 Dec 03, 2016 08:59 AM

Seems very good to me, thanks I love this intro :)

guest
You may want to rate the tab now too:
select rating
Wanna post a correction for this tab? Suggest correction