Oops, an error
Loading. Please wait.

Awakening The Curse Of Souls Tab

149 views 1 this week
no commentswrite comment
1 2 3 4 5
3 more votes to show rating
add to favorites
launch autoscroll
font size
0
reset
how to read this tab
guitar tuner
Autoscroll
slow
fast
+/-
esc
set tempo
stop
Help us to improve Ultimate-Guitar.com Take our survey!
×
Author
Difficulty
Tuning
intermediate
D# G# C# F# A# D#
-----------------------------------------------------------------------------
                    Awakening the curse of souls - Nocturnal
-----------------------------------------------------------------------------


    Band:  Nocturnal
    Album: Arrival of the Carnivore
    Song:  Awakening the curse of souls
    Copyright (c) Deathstrike Records
    Version 1.0 - 03/03/2012
    Transcribed By: ulfskeptr
    Email: malignitas-odium@hotmail.com

    http://www.myspace.com/nocturnalthrash


.  - palm mute           ,  - slight palm mute
\  - slide down to       /  - slide up to
~  - vibrato             b  - bend
h  - hammer on           p  - pull off
[] - second time         *  - see comment
t  - tap                 ph - pinched harmonic
x  - staccato            () - ghost note, sustained note
"  - tremolo note        <> - trill

Suffixes for bend
f  - full bend    h - half bend
q  - quarter bend t - tap bend
^  - hold bend    r - release bend
~  - vibrato bend


Tuning: Tune down Half-Step

Riff 1 - 2x
eb|----------------------------------------------------------|--------------|
Bb|----------------------------------------------------------|--------------|
Gb|--------2------------------------------------------5\4\3--|--------------|
Db|---222-----222---------3------2------4/5\4--2------3\2\1--|--2------9\---|
Ab|-0--------------3p0-0--3------2------2/3\2--0-000---------|--0-0-0--7\---|
Eb|-----------------------1-111--0-000-----------------------|--------------|
                            ...    ...           ...              . .

Riff 2 - 4x                                  1. 2. 3.         4.
eb|------------------------------------------|---------------|--------------|
Bb|-------------888--7-----------------------|-4-3-4--6-0----|-3-2----------|
Gb|----------9---------8--------------5---5--|------------0--|-----3--2-----|
Db|-----999--------------8-9\-----555---5----|---------------|----------3-2-|
Ab|-/7-------------------------3-------------|---------------|--------------|
Eb|------------------------------------------|---------------|--------------|


Riff 1 - 2x
Riff 2 - 4x (4. time on same notes)


Bridge 1 - 2x
eb|-------------------------------------------------------------------------|
Bb|-------------------------------------------------------------------------|
Gb|-------------------------------------------------------------------------|
Db|-9-----9-----9-----9-----9-----9---------------------9-----9-----9-----9-|
Ab|-7-----7-----7-----7-----7-----7-----7h8p7-----10-9--7-----7-----7-----7-|
Eb|---000---000---000---000---000---000-------8-7---------000---000---000---|
      ...   ...   ...   ...   ...   ...                   ...   ...   ...

----------------------------------------------------------------------------|
-----------------------------------------------------9-8-6------------------|
----------------------------------7-----8-7---8-7-----------7---------------|
-----9-----9----------------------5-555-----5-----5---------5-555-----------|
-----7-----7-----7h8p7-----10-9---------------------------------------------|
-000---000---000-------8-7--------------------------------------------------|
 ...   ...   ...                    ...     .     .           ...

------------------|
--------9-8-6-8\--|
--8-7-8-----------|
------------------|
------------------|
------------------|


Riff 1 - 2x
Riff 2 - 4x (4. time on same notes)


Bridge 2 - 4x
eb|-------------------------------------------------------------------------|
Bb|-------------------------------------------------------------------------|
Gb|-------------------------------------------------------------------------|
Db|-------9\--------9\--------9\--12---------12\8---------------------------|
Ab|-2-----7\--2-----7\--2-----7\--10-101010--10\6---------------------------|
Eb|-0-000-----0-000-----0-000-----------------------------------------------|
      ...       ...       ...        . . .

Riff 3 - 4x
eb|-------------------------------------------------------------------------|
Bb|-------------------------------------------------------------------------|
Gb|-4-----------3-3--4-----------3-4--4-----------3-3-----------------------|
Db|-2-222-3-2-2------2-222-3-2-2------2-222-3-2-2------5-----5-3------------|
Ab|----------------------------------------------------3-333-----6-5-2------|
Eb|-------------------------------------------------------------------------|
      ...              ...              ...              ...


Riff 3 - 4x (fast)


Riff 4 - 4x (listen to the song for the rhythm)
eb|-------------------------------------------------------------------------|
Bb|-------------------------------------------------------------------------|
Gb|-------------------------------------------------------------------------|
Db|-9-----8/9-----8/9---------------9-----8/9-------------------------------|
Ab|-7-----6/7-----6/7---------------7-----6/7--------7h8p7-6-7-6------------|
Eb|---000-----000-----000-0-000-000---000-----000-0--------------8-7-6------|
      ...     ...     ... . ... ...   ...     ... .


Riff 5 - 4x
eb|-------------------------------------------------------------------------|
Bb|-------------------------------------------------------------------------|
Gb|-------------------------------------------------------------------------|
Db|-5--55--7--9-99--7-5-----------------------------------------------------|
Ab|-5--55--7--9-99--7-5--2------2------2------2-----------------------------|
Eb|-3--33--5--7-77--5-3--0-0000-0-0000-0-0000-0-0000------------------------|
                           ....   ....   ....   ....

Riff 3 - 1x (guitar 1)
Riff 3 - 4x
Riff 4 - 4x
Riff 5 - 4x
Riff 2 - till end...
Suggest correction
Give kudos to tab author, rate the tab!
1 2 3 4 5
comments
print report bad tab
guest
You may want to rate the tab now too:
select rating
Wanna post a correction for this tab? Suggest correction