Oops, an error
Loading. Please wait.

Coven Of Darkness Tab

235 views 1 this week
no commentswrite comment
1 2 3 4 5
please rate
add to favorites
launch autoscroll
font size
0
reset
how to read this tab
guitar tuner
Autoscroll
slow
fast
+/-
esc
set tempo
stop
Help us to improve Ultimate-Guitar.com Take our survey!
×
Author
Difficulty
Tuning
intermediate
D# G# C# F# A# D#
-----------------------------------------------------------------------------
                 Coven of Darkness, Temples of Sin - Nocturnal
-----------------------------------------------------------------------------


    Band:  Nocturnal
    Album: Arrival of the Carnivore
    Song:  Coven of Darkness, Temples of Sin
    Copyright (c) Deathstrike Records
    Version 1.0 - 10/01/2012
    Transcribed By: ulfskeptr
    Email: malignitas-odium@hotmail.com

    http://www.myspace.com/nocturnalthrash


.  - palm mute           ,  - slight palm mute    
\  - slide down to       /  - slide up to
~  - vibrato             b  - bend
h  - hammer on           p  - pull off                  
[] - second time         *  - see comment
t  - tap                 ph - pinched harmonic
x  - staccato            () - ghost note, sustained note
"  - tremolo note        <> - trill

Suffixes for bend
f  - full bend    h - half bend
q  - quarter bend t - tap bend
^  - hold bend    r - release bend
~  - vibrato bend


Tuning: Tune down Half-Step

------------------
Coven of Darkness:
------------------

Intro - 6x
eb|----------------|
Bb|----------------|
Gb|--------9--8-8--|
Db|--2--3--9--8-8--|
Ab|--2--3--7--6-6--|
Eb|--0--1----------|

Opening Riff 1
eb|---------------------|
Bb|---------------------|
Gb|---------------------|
Db|--.-.---7-6-.-.------|
Ab|--6-7-------7-6--9\--|
Eb|---------------------|

Riff 1                            Fig.1 - 3x          Fig.2 - 1x 
eb|-------------------------------|-------------------|--------------------|
Bb|-------------------------------|-------------------|--------------------|
Gb|-----------------9--8-8--------|-------------------|--------------------|
Db|-2---------3-----9--8-8-......-|--.-.-7-6-.-.------|--------------------|
Ab|-2-......--3-..--7--6-6-666666-|--6-7-----6-7--9\--|----6h7p6h7p6h7p6h7-|
Eb|-0-000000--1-11----------------|-------------------|--------------------|

- then play ending on Fig.1 - 4x

Riff 2 - 2x
eb|-------------------------------------------------------------------------
Bb|-------------------------------------------------------------------------
Gb|--9-------12\8---9-----------------9-------12\8---9----------------------
Db|--9-.....-12\8---9-.....--10-9-7---9-.....-12\8---9-.....--10-9-7--------
Ab|--7-77777-10\6---7-77777--8--7-5---7-77777-10\6---7-77777--8--7-5--------
Eb|-------------------------------------------------------------------------

--------------------------------------------------------------------|
--------------------------------------------------------------------|
-----5-------8\4----5-----------------5-------8\4---5---------------|
-----5-.....-8\4----5-.....--6-5-6----5-.....-8\4---5-.....--6-5-10-|
-----3-33333-6\2----3-33333--4-3-4----3-33333-6\2---3-33333--4-3-8--|
--------------------------------------------------------------------|

End
eb|---------------------|
Bb|---------------------|
Gb|---------------------|
Db|--9\-----------------|
Ab|--7\-----------------|
Eb|---------------------|


---------------
Temples of Sin:
---------------

Riff 1
eb|--------------------------------------------------------------------------
Bb|--------------------------------------------------------------------------
Gb|--9-------12\8---9-----------------9-------12\8---9-----------------------
Db|--9-.....-12\8---9-.....--10-9-7---9-.....-12\8---9-.....--10-9-7---------
Ab|--7-77777-10\6---7-77777--8--7-5---7-77777-10\6---7-77777--8--7-5---------
Eb|--------------------------------------------------------------------------

----------------------------------------------------------------------------|
----------------------------------------------------------------------------|
-----5-------8\4---5-----------------5-------8\4----5-----------------------|
-----5-.....-8\4---5-.....--6-5-6----5-.....-8\4----5-.....--6-5-10---------|
-----3-33333-6\2---3-33333--4-3-4----3-33333-6\2----3-33333--4-3-8----------|
----------------------------------------------------------------------------|

Riff 2
eb|-------------------------------------------------------------------------|
Bb|-------------------------------------------------------------------------|
Gb|-------------------------------------------------------------------------|
Db|--...-2-.....-1-.....---...-----3-------...-----8-7----7-6---------------|
Ab|--000---00000---00000-1-000--1-----1--0-000--/8------8------7-6-5-3------|
Eb|-------------------------------------------------------------------------|

Riff 3
eb|-------------------------------------------------------------------------|
Bb|-------------------------------------------------------------------------|
Gb|-------------------------------------------------------------------------|
Db|--9-...-9-...-9-...--9--5--8-...-8-..--10--10101010--9-7-----------------|
Ab|--7-777-7-777-7-777--7--3--6-666-6-66--8---8-8-8-8---7-5-----------------|
Eb|-------------------------------------------------------------------------|

Bridge - play this twice
eb|--------------------------------------------------------------------------
Bb|--------------------------------------------------------------------------
Gb|--------------------------------------------------------------------------
Db|---2-.....-5\4--2-.....-5\4--2-.....-5\4--2-.--5\4--2-.--5\4--------------
Ab|---0-00000-3\2--0-00000-3\2--0-00000-3\2--0-0--3\2--0-0--3\2--------------
Eb|--------------------------------------------------------------------------

                                              1.               2.
----------------------------------------------|----------------|------------|
----------------------------------------------|----------------|------------|
----------------------------------------------|----------------|------------|
--4-.....-5\4--4-.....-5\4--4-.....-5\4--4-.--|--5\4--4-.--5\4-|-----3-2----|
--2-22222-3\2--2-22222-3\2--2-22222-3\2--2-2--|--3\2--2-2--3\2-|-3-2-----3-2|
----------------------------------------------|----------------|------------|


End
eb|-----|
Bb|-----|
Gb|-----|
Db|--2--|
Ab|--0--|
Eb|-----|



Structure:

Riff 1 - 2x
Riff 2 - 4x
Riff 1 - 2x
Riff 3 - 4x
Riff 2 - 4x
Riff 1 - 2x
Riff 3 - 4x
Bridge - 2x
Riff 1 - 2x
Riff 3 - 4x
Riff 2 - 4x
End...
Suggest correction
Give kudos to tab author, rate the tab!
1 2 3 4 5
comments
print report bad tab
guest
You may want to rate the tab now too:
select rating
Wanna post a correction for this tab? Suggest correction