Oops, an error
Loading. Please wait.

Punch Me If You Can tab

829 views 6 this week
no commentswrite comment
1 2 3 4 5
1 last vote to show rating
add to favorites
×
Save as Personal and add changes to this tab that will be seen only by you. Learn more ›
×
You can save this tab as Personal to edit and correct it or add notes. All changes will be seen only by you. Learn more »
launch autoscroll
font size
0
reset
how to read this tab
guitar tuner
edit
Autoscroll
slow
fast
+/-
esc
set tempo
stop
Tuning:A drop (7 string only allowed)
               
                                                
[Intro]

    PM================================================|
E||----------------------------------------------------------------------------------------------------||
B||----------------------------------------------------------------------------------------------------||
G||----------------------------------------------------------------------------------------------------||
D||----------------------------------------------------------------------------------------------------||
A||----------------------------------------------------------------------------------------------------||
E||----------------------------------------------5-----------------------------------------------------||
A||--0-0--0-0--0-0--0-0--3-0--0-0--0-0--0-0--0-0---0---------------------------------------------------||x3

 PM=================================|
E|------------------------------------------------------------------------------------------------------|
B|------------------------------------------------------------------------------------------------------|
G|------------------------------------------------------------------------------------------------------|
D|------------------------------------------------------------------------------------------------------|
A|------------------------------------------------------------------------------------------------------|
E|------------------------------------------------------------------------------------------------------|
A|-0-0--0-0--0-0--0-0--0-0-0-0-/x-----------------------------------------------------------------------|
      .    .    .    .             .    .    .    .
E||-----------------------------------------------------------------------------------------------------|
B||-----------------------------------------------------------------------------------------------------|
G||-----------------------------------------------------------------------------------------------------|
D||-----------------------------------------------------------------------------------------------------|
A||-----------------------------------------------------------------------------------------------------|
E||-------------------------------------------------5---------------------------------------------------|
A||-0-0--0-0--0-0--0-0--0-0-0-0--0-0--0-0--0-0--0-0-----------------------------------------------------|

     .    .    .    .             .    .    .    .PM===|     
E|-----------------------------------------------------------------------------------------------------||
B|-----------------------------------------------------------------------------------------------------||
G|-----------------------------------------------------------------------------------------------------||
D|-----------------------------------------------------------------------------------------------------||
A|-----------------------------------------------------------------------------------------------------||
E|--------------------------------------------------6-5-3----------------------------------------------||
A|-0-0--0-0--0-0--0-0--0-0-0-0--0-0--0-0--0-0--0-0--6-5-3----------------------------------------------||x2

                                                                                                   A.H
E|------------------------------------------------------------------------------------------------------|
B|------------------------------------------------------------------------------------------------------|
G|-/9--10-9~--------------------/9--10-9~----------------/9--10-9~-/12-10-9~--/9--10-9-------/14~--13~--|
D|-------------/10--12-10-12~--------------/10-12-10-12~--------------------------------/10~------------|
A|------------------------------------------------------------------------------------------------------|
E|------------------------------------------------------------------------------------------------------|
A|------------------------------------------------------------------------------------------------------|

                                                
[Verse 1]    
          
E|------------------------------------------------------------------------------------------------------|
B|------------------------------------------------------------------------------------------------------|
G|------------------------------------------------------------------------------------------------------|
D|------------------------------------------------------------------------------------------------------|
A|------------------------------------------------------------------------------------------------------|
E|-0-0-0--0-0-0-0-0-0---0-0-0--0-0-0-0-0-0---3--3--3--5-3-1--1--1--3-1----------------------------------|
A|-0-0-0--0-0-0-0-0-0---0-0-0--0-0-0-0-0-0---3--3--3--5-3-1--1--1--3-1----------------------------------|

E|------------------------------------------------------------------------------------------------------|
B|------------------------------------------------------------------------------------------------------|
G|------------------------------------------------------------------------------------------------------|
D|------------------------------------------------------------------------------------------------------|
A|-0-0-0--0-0-0-0-0-0---0-0-0--0-0-0-0-0-0---3--3--3--5-3-1--1--1-3-1-0--0------------------------------|
E|-0-0-0--0-0-0-0-0-0---0-0-0--0-0-0-0-0-0---3--3--3--5-3-1--1--1-3-1-0--0------------------------------|

A|------------------------------------------------------------------------------------------------------|
E|------------------------------------------------------------------------------------------------------|
B|------------------------------------------------------------------------------------------------------|
G|------------------------------------------------------------------------------------------------------|
D|------------------------------------------------------------------------------------------------------|
A|------------------------------------------------------------------------------------------------------|
E|-8p7--7p5--6p4---------------0--0-8p7-7p5-6p4--10-8-7--7-6-4-7--0-0--8p7--7p5--6p4--10-8-7-8-7-5------|
A|-----------------------------0--0----------------------7-6-4-7--0-0-----------------------------------|

E|------------------------------------------------------------------------------------------------------|
B|------------------------------------------------------------------------------------------------------|
G|---9-10-9------------/14~--13~------------------------------------------------------------------------|
D|-x--------8/10-12-10----------------------------------------------------------------------------------|
A|------------------------------------------------------------------------------------------------------|
E|------------------------------------------------------------------------------------------------------|
A|------------------------------------------------------------------------------------------------------|


[Chorus]

 PM=========================|
E|------------------------------------------------------------------------------------------------------|
B|------------------------------------------------------------------------------------------------------|
G|------------------------------------------------------------------------------------------------------|
D|------------------------------------------------------------------------------------------------------|
A|------------------------------------------------------------------------------------------------------|
E|---------------------------------------------------------0--3---3--3-3-3--8---8--8-8-8--3/5\1--1-1-1--|
A|-0-0-0--0-0-0--0-0-0--0-0-0--3p0-0-0-5p0-0-3p0-0-5~------0--3---3--3-3-3--8---8--8-8-8--3/5\1--1-1-1--|

E|------------------------------------------------------------------------------------------------------|
B|------------------------------------------------------------------------------------------------------|
G|------------------------------------------------------------------------------------------------------|
D|------------------------------------------------------------------------------------------------------|
A|------------------------------------------------------------------------------------------------------|
E|-0---0--0-0-0--3---3--3-3-3/8---8--8-8-8--10---10--10-10-10--0---0--0-0-0--3---3--3-3-3--8---8--8-8-8-|
A|-0---0--0-0-0--3---3--3-3-3/8---8--8-8-8--10---10--10-10-10--0---0--0-0-0--3---3--3-3-3--8---8--8-8-8-|

E|------------------------------------------------------------------------------------------------------|
B|------------------------------------------------------------------------------------------------------|
G|------------------------------------------------------------------------------------------------------|
D|------------------------------------------------------------------------------------------------------|
A|------------------------------------------------------------------------------------------------------|
E|--5-5-5-1--1--1-1-1--0---0--0--0-0-0--3---3--3-3-3/8---8--8-8-8--10---10--10-10-10--0--------(0)------|
A|--5-5-5-1--1--1-1-1--0---0--0--0-0-0--3---3--3-3-3/8---8--8-8-8--10---10--10-10-10--0--------(0)------|


[Bridge]

   .  .  .      .  .                 PM===========|
E|------------------------------------------------------------------------------------------------------|
B|------------------------------------------------------------------------------------------------------|
G|------------------------------------------------------------------------------------------------------|
D|------------------------------------------------------------------------------------------------------|
A|-3--3-------------------------------------------------------------------------------------------------|
E|-3--3--0------3--3--0------3--3--0--0-0-0-0-0-0-------------------------------------------------------|
A|-------0------3--3--0------3--3--0--0-0-0-0-0-0-------------------------------------------------------|

PM=======================================================================================================
E|------------------------------------------------------------------------------------------------------|
B|------------------------------------------------------------------------------------------------------|
G|------------------------------------------------------------------------------------------------------|
D|------------------------------------------------------------------------------------------------------|
A|------------------------------------------------------------------------------------------------------|
E|------------------------------------------------------------------------------------------------------|
A|-0-0-0--0-0-0--0-0-0--0-0-0--0--0-0-0--0--0-0-0--0-0-0--0--0-0-0--0--0-0-0---0-0-0--0--0-0-0--0--0-0-0|

======|
E|------------------------------------------------------------------------------------------------------|
B|------------------------------------------------------------------------------------------------------|
G|------------------------------------------------------------------------------------------------------|
D|------------------------------------------------------------------------------------------------------|
A|------------------------------------------------------------------------------------------------------|
E|-5-3-7------------------------------------------------------------------------------------------------|
A|-5-3-7------------------------------------------------------------------------------------------------|

PM=======================================================================================================
E|------------------------------------------------------------------------------------------------------|
B|------------------------------------------------------------------------------------------------------|
G|------------------------------------------------------------------------------------------------------|
D|------------------------------------------------------------------------------------------------------|
A|------------------------------------------------------------------------------------------------------|
E|------------------------------------------------------------------------------------------------------|
A|-0-0-0--0-0-0--0-0-0--0-0-0--0--0-0-0--0--0-0-0--0-0-0--0--0-0-0--0--0-0-0---0-0-0--0--0-0-0--0--0-0-0|

======|
E|------------------------------------------------------------------------------------------------------|
B|------------------------------------------------------------------------------------------------------|
G|------------------------------------------------------------------------------------------------------|
D|------------------------------------------------------------------------------------------------------|
A|------------------------------------------------------------------------------------------------------|
E|-5-3-7/6----------------------------------------------------------------------------------------------|
A|-5-3-7/6----------------------------------------------------------------------------------------------|

                                                 Verse 2
PM==================================|    ==================================|  
E|------------------------------------------------------------------------------------------------------|
B|------------------------------------------------------------------------------------------------------|
G|------------------------------------------------------------------------------------------------------|
D|------------------------------------------------------------------------------------------------------|
A|------------------------------------6-----------------------------------------------------------------|
E|------------------------------------6--------------------------------------0-1-5----------------------|
A|-0-0-0--0-0-0--0-0-0--0-0-0--0-0-0--6---0-0-0-0--0-0-0--0-0--1-1--1-1--1-1-0-1-5----------------------|

PM==================================|    ==================================|
E|------------------------------------------------------------------------------------------------------|
B|------------------------------------------------------------------------------------------------------|
G|------------------------------------------------------------------------------------------------------|
D|------------------------------------------------------------------------------------------------------|
A|------------------------------------6-----------------------------------------------------------------|
E|------------------------------------6-----------------------------------------------------------------|
A|-0-0-0--0-0-0--0-0-0--0-0-0--0-0-0--6---0-0-0-0--0-0-0--0-0--1-1--1-1--1-1/x--------------------------|


[Solo]  

E|--------12---------12---------12---12--------------12---------12--13-12-------------------------------|
B|-8-8-10-------8-10-------8-10---------10-8-8-8-10--------8-10-----------11~---------------------------|
G|------------------------------------------------------------------------------------------------------|
D|------------------------------------------------------------------------------------------------------|
A|------------------------------------------------------------------------------------------------------|
E|------------------------------------------------------------------------------------------------------|
A|------------------------------------------------------------------------------------------------------|

E|----17-17-15-15-17-17-13-13-17-17-12-12-17-17-------13-13-12-12-13-13-10-10-13-13-8-8-13-13-----------|
B|-15-------------------------------------------11-11---------------------------------------------------|
G|------------------------------------------------------------------------------------------------------|
D|------------------------------------------------------------------------------------------------------|
A|------------------------------------------------------------------------------------------------------|
E|------------------------------------------------------------------------------------------------------|
A|------------------------------------------------------------------------------------------------------|
                                    
E|-15p12----------12h15p12/15h18p15----------19-16-18-19/20p17------------------------------------------|
B|-------13----13-------------------17----17-------------------20p19p17---------------------------------|
G|----------12-------------------------16--------------------------------20-19~19~-16-18-19~------------|
D|------------------------------------------------------------------------------------------------------|
A|------------------------------------------------------------------------------------------------------|
E|------------------------------------------------------------------------------------------------------|
A|------------------------------------------------------------------------------------------------------|

E|------------------------------------------------------------------------------------------------------|
B|--------------------------------------------------15-17-19-17-19-20b22-21rb20-18-20-18-17-18p17-------|
G|-16-18-19~19/22-19-18~-16-18-19~17-19-20-18-20-22-----------------------------------------------17----|
D|------------------------------------------------------------------------------------------------------|
A|------------------------------------------------------------------------------------------------------|
E|------------------------------------------------------------------------------------------------------|
A|------------------------------------------------------------------------------------------------------|

                                              (whammy bar) A.H
E|------------------------------------------------------------------------------------------------------|
B|-20b22-21rb20-18-20-18-17-18-17/20--/18-17------------------------------------------------------------|
G|-------------------------------------------18------------17-------------------------------------------|
D|------------------------------------------------------------------------------------------------------|
A|------------------------------------------------------------------------------------------------------|
E|------------------------------------------------------------------------------------------------------|
A|------------------------------------------------------------------------------------------------------|


[Verse 3]

E|------------------------------------------------------------------------------------------------------|
B|------------------------------------------------------------------------------------------------------|
G|------------------------------------------------------------------------------------------------------|
D|------------------------------------------------------------------------------------------------------|
A|--------------------------------------------------------------------------------5p3-3-5p0-------------|
E|-0-0--7h8--4h5-5--/10--8-8-7-5--0-0-3h5-5-5-----10--8-8-7-5--0-0-3h5-5-5------------------------------|
A|-0-0----------------------------0-0---------3p5--------------0-0----------3h5-3-----------------------|

E|------------------------------------------------------------------------------------------------------|
B|------------------------------------------------------------------------------------------------------|
G|--------------------------------/9-10-9------------14~-13~--------------------------------------------|
D|----------------------------------------9/10-12-10----------------------------------------------------|
A|------------------------------------------------------------------------------------------------------|
E|-0-0--3h5-5-5-----10--8-8-7-5-------------------------------------------------------------------------|
A|-0-0----------3h5-------------------------------------------------------------------------------------|

                                                
[Bridge]

E|------------------------------------------------------------------------------------------------------|
B|------------------------------------------------------------------------------------------------------|
G|------------------------------------------------------------------------------------------------------|
D|------------------------------------------------------------------------------------------------------|
A|------------------------------------------------------------------------------------------------------|
E|------------------------------------------------------------------------------------------------------|
A|-0-0-0--0-0-0--0-0-0--0-0-0--3h5-5-5-3h5-7~\----------------------------------------------------------|


[Chorus]

E|------------------------------------------------------------------------------------------------------|
B|------------------------------------------------------------------------------------------------------|
G|------------------------------------------------------------------------------------------------------|
D|------------------------------------------------------------------------------------------------------|
A|------------------------------------------------------------------------------------------------------|
E|-0---3---8---8--8-8-8--5-5-5-1--1-1-1---0---0--0-0-0---3---3--3-3-3---8---8--8-8-8---10---10--10-10-10|
A|-0---3---8---8--8-8-8--5-5-5-1--1-1-1---0---0--0-0-0---3---3--3-3-3---8---8--8-8-8---10---10--10-10-10|

E|------------------------------------------------------------------------------------------------------|
B|------------------------------------------------------------------------------------------------------|
G|------------------------------------------------------------------------------------------------------|
D|------------------------------------------------------------------------------------------------------|
A|------------------------------------------------------------------------------------------------------|
E|-0---0--0-0-0---3---3--3-3-3---8---8--8-8-8--5-5-5-1--1-1-1-------------------------------------------|
A|-0---0--0-0-0---3---3--3-3-3---8---8--8-8-8--5-5-5-1--1-1-1-------------------------------------------|

E|------------------------------------------------------------------------------------------------------|
B|------------------------------------------------------------------------------------------------------|
G|------------------------------------------------------------------------------------------------------|
D|------------------------------------------------------------------------------------------------------|
A|------------------------------------------------------------------------------------------------------|
E|-0---0--0-0-0---3---3--3-3-3---8---8--8-8-8---10---10--10-10-10---------------------------------------|
A|-0---0--0-0-0---3---3--3-3-3---8---8--8-8-8---10---10--10-10-10---------------------------------------|


[Outro]

      .    .    .    .             .    .    .    .
E||-----------------------------------------------------------------------------------------------------|
B||-----------------------------------------------------------------------------------------------------|
G||-----------------------------------------------------------------------------------------------------|
D||-----------------------------------------------------------------------------------------------------|
A||-----------------------------------------------------------------------------------------------------|
E||-------------------------------------------------5---------------------------------------------------|
A||-0-0--0-0--0-0--0-0--0-0-0-0--0-0--0-0--0-0--0-0-----------------------------------------------------|

     .    .    .    .             .    .    .    .PM===|     
E|-----------------------------------------------------------------------------------------------------||
B|-----------------------------------------------------------------------------------------------------||
G|-----------------------------------------------------------------------------------------------------||
D|-----------------------------------------------------------------------------------------------------||
A|-----------------------------------------------------------------------------------------------------||
E|--------------------------------------------------6-5-3----------------------------------------------||
A|-0-0--0-0--0-0--0-0--0-0-0-0--0-0--0-0--0-0--0-0--6-5-3----------------------------------------------||x2


E|------------------------------------------------------------------------------------------------------|
B|------------------------------------------------------------------------------------------------------|
G|------------------------------------------------------------------------------------------------------|
D|------------------------------------------------------------------------------------------------------|
A|------------------------------------------------------------------------------------------------------|
E|-13/--------------------------------------------------------------------------------------------------|
A|-13/--------------------------------------------------------------------------------------------------|








************************************
| A.H. Atificial harmonic
| .    Staccato
| x    Dead note
| h    Hammer-on
| p    Pull-off
| r    Release
| b    Bend
| rb   Bend release
| /    Slide up
| \    Slide down
| ~    Vibrato
| PM   Palm mute
************************************

            
            
Suggest correction
Creating personal tab
Creating personal tab
You can edit any tab online and save it as your Personal.

You can edit, replace or remove any tab part or add personal notes – all changes will be seen only by you.

Personal tabs can be accessed anytime from any device, even offline.
Learn more »
Give kudos to tab author, rate the tab!
1 2 3 4 5
comments
print report bad tab
guest
You may want to rate the tab now too:
select rating
Wanna post a correction for this tab? Suggest correction