Oops, an error
Loading. Please wait.

Dead Dominions Tab

347 views 1 this week
no commentswrite comment
1 2 3 4 5
3 more votes to show rating
add to favorites
launch autoscroll
font size
0
reset
how to read this tab
guitar tuner
×
Best way to learn
"Dead Dominions"
Autoscroll
slow
fast
+/-
esc
set tempo
stop
                     NOCTURNAL BREED - DEAD DOMINIONS
                     From the Album AGGRESSOR
                     Copyright (1997 - HAMMERHEART RECORDS)
                     Version 1.0 - (JAN. - 2001)

Transcribed by: REAPER

For Questions, Comments, Newest Version, or Corrections contact
Rene C: at bathory@huk.k64.dk

Check Out Death Warp, With More Transcriptions On It:
 http://www.wam.umd.edu/~ekubica

..  - palm mute          /  - slide up to
 \  - slide down to      ~  - vibrato
 h  - hammer on          b  - bend
 p  - pull off            Suffixes for bend
                          ph - pinch harmonic
                           f - full bend    h - half bend
*  - see comment           r - release      t - tap bend
X  - percussion mute       ~ - vibrato bend
@  - slight palm mute     () - ghost note, sustained note

Tune Gtr to Eb


Riff A
|--------------------------------------------------------------------|
|--------------------------------------------------------------------|
|-------------------------5------------------------------------------| 
|-4--4-5-4--4-5-4--4-5-4--5------------------------------------------|
|-4--4-5-4--4-5-4--4-5-4--3------------------------------------------|
|-2--2-3-2--2-3-2--2-3-2---------------------------------------------|

Riff B                                                                    
|--------------------------------------------------------------------|
|--------------------------------------------------------------------|
|-----6--5-------6-5-6-5---------------------------------------------| 
|-4---6--5---4---6-5-6-5---------------------------------------------| 
|-4---4--3---4---4-3-4-3---------------------------------------------|
|-2----------2-------------------------------------------------------|

Riff C
|--------------------------------------------------------------------|
|--------------------------------------------------------------------|
|-4---------4---------4---------4---------4--------------------------|
|-4----5----4----5----4----5----4----5----4----5---------------------| 
|-2----5----2----5----2----5----2----5----2----5---------------------|
|------3---------3---------3---------3---------3---------------------|

Riff D                                                                    
|--------------------------------------------------------------------|
|--------------------------------------------------------------------|
|--------------------------------------------------------------------| 
|-4444------4444------4444------4444------4444-----------------------| 
|-2222-5555-2222-5555-2222-5555-2222-5555-2222-5555------------------|
|------3333------3333------3333------3333------3333------------------|

Riff E
|--------------------------------------------------------------------|
|--------------------------------------------------------------------|
|-6---------6----5----6---------6----5-------------------------------|
|-4----7----4----3----4----7----4----3-------------------------------|
|------5-------------------5-----------------------------------------|
|--------------------------------------------------------------------|

Riff F
|--------------------------------------------------------------------|
|--------------------------------------------------------------------|
|-6----6----6-------------6----6----6-5----5----5--------------------|
|-4-44-4-44-4-7----7----7-4-44-4-44-4-3-33-3-33-3--------------------|
|-------------5-55-5-55-5--------------------------------------------|
|--------------------------------------------------------------------|
Suggest correction
Give kudos to tab author, rate the tab!
1 2 3 4 5
comments
print report bad tab
guest
You may want to rate the tab now too:
select rating
Wanna post a correction for this tab? Suggest correction