Oops, an error
Loading. Please wait.

Still Alive tab

version 1
version 1

Whole song

Interactive

1,106 views 3 this week
no commentswrite comment
1 2 3 4 5
3 more votes to show rating
add to favorites
×
Save as Personal and add changes to this tab that will be seen only by you. Learn more ›
×
You can save this tab as Personal to edit and correct it or add notes. All changes will be seen only by you. Learn more »
launch autoscroll
font size
0
reset
how to read this tab
guitar tuner
edit
Autoscroll
slow
fast
+/-
esc
set tempo
stop
Nocturnal Rites - Still Alive
7-string : ADGCFAD = tuning

it took me FOREVER to tab this out. well, it took me forever to learn it by ear, then
to tab an ascii for it, then forever to put it on guitar pro 5..so i really hope you
this is a GREAT song! and fun to play! power metal roxx :) any ?s jus email me 
or if u want me to arrange it for 6-string, jus hit me up :)

          PM PM PM PM            PM PM PM PM PM PM PM PM PM PM PM PM
D#||-----------------------|--------------------------------------------------|
A#||-----------------------|--------------------------------------------------|
F#||-----------------------|--------------------------------------------------|
C#||-----------------------|--------------------------------------------------|
G#||-----------------------|--------------------------------------------------|
D#||------8--8--8--8--5-7~-|--L--------------------------------------5-5-8-7~-|
A#||-----------------------|-----0--0--0--0--0--0--0--0--0--0--0--0-----------|


     PM PM PM PM PM PM PM PM PM PM PM PM
--------------------------------------------------|
--------------------------------------------------|
--------------------------------------------------|
--------------------------------------------------|
--------------------------------------------------|
--L--------------------------8--8--8--8--8-8-5-7~-|
-----0--0--0--0--0--0--0--0-----------------------|


     PM PM PM PM PM PM PM PM PM PM PM PM
--------------------------------------------------|
--------------------------------------------------|
--------------------------------------------------|
--------------------------------------------------|
--------------------------------------------------|
--L--------------------------------------5-5-8-7~-|
-----0--0--0--0--0--0--0--0--0--0--0--0-----------|


     PM PM PM PM PM PM PM
-----------------------------------------|
-----------------------------------------|
-----------------------------------------|
---------------------------------------9-|
-----------------------------------------|
--L------------------------(x)\--------7-|
-----0--0--0--0--0--0--0---(x)\----------|

----------------------------------------|
----------------------------------------|
-------------------------------14-14g11-|
--L------12-12g11---14-14g12------------|
-------------------------------12--12g9-|
--L------10--10g9---12-12g10------------|
----------------------------------------|


                   PM PMPM
----------------------------------------|---------------------------------|
----------------------------------------|---------------------------------|
---L-----L---/12--12-11-9---------------|---------------------------------|
---------------------------11s-12s-11-9-|--L------14-14g12----L-12--11--9-|
---L-----L---/10--10--9-7---------------|---------------------------------|
----------------------------9s-10s--9-7-|--L------12-12g10----L-10---9--7-|
----------------------------------------|---------------------------------|


-----------------------------|---------------------------|
-----------------------------|---------------------------|
-----------------------------|---------------------------|
--L-11s-12---L--------11---9-|--L--------L---------------|
-----------------------------|---------------------------|
--L--9s-10---L---------9---7-|--L--------L-5-4-2-5-4-5-2-|
-----------------------------|-------------3-2-0-3-2-3-0-|


     PM PM PM PM PM PM PM PM PM PM PM PM PM PM PM PM PM   PM
|-------------------------------------------------------------------|
|-------------------------------------------------------------------|
|-------------------------------------------------------------------|
|-------------------------------------------------------9----9-9g11-|
|-------------------------------------------------------------------|
|--L----------------------------------------------------7----7--7g9-|
|--L-0--0--0--0--0--0--0--0--0--0--0--0--0--0--0--0--0----0---------|


     PM PM PM PM PM PM PM PM PM PM PM PM PM PM PM PM PM   PM
----------------------------------------------------------------------|
----------------------------------------------------------------------|
----------------------------------------------------------------------|
---L----------------------------------------------------9----11-11g12-|
----------------------------------------------------------------------|
---L----------------------------------------------------7-----9--9g10-|
-----0--0--0--0--0--0--0--0--0--0--0--0--0--0--0--0--0----0-----------|


     PM PM PM PM PM PM PM PM PM PM PM PM PM PM PM PM PM PM PM PM
-------------------------------------------------------------------|
-------------------------------------------------------------------|
-------------------------------------------------------------------|
---L---------------------------------------------------------------|
-----------------------------------------------------------------7-|
---L-------------------------------------------------------------5-|
-----0--0--0--0--0--0--0--0--0--0--0--0--0--0--0--0--0--0--0--0----|


---------------------------|
---------------------------|
---------------------------|
---------------------------|
--L----L---4-L--4----------|
--L----L---2-L--2--------2-|
-------------------0-2-3-0-|


    PM PM PM PM PM PM PM PM PM PM PM PM PM PM PM PM PM   PM
-------------------------------------------------------------------|
-------------------------------------------------------------------|
-------------------------------------------------------------------|
-------------------------------------------------------9----9-9g11-|
-------------------------------------------------------------------|
--L----------------------------------------------------7----7--7g9-|
--L-0--0--0--0--0--0--0--0--0--0--0--0--0--0--0--0--0----0---------|


     PM PM PM PM PM PM PM PM PM PM PM PM PM PM PM PM PM   PM
----------------------------------------------------------------------|
----------------------------------------------------------------------|
----------------------------------------------------------------------|
---L----------------------------------------------------9----11-11g12-|
----------------------------------------------------------------------|
---L----------------------------------------------------7-----9--9g10-|
-----0--0--0--0--0--0--0--0--0--0--0--0--0--0--0--0--0----0-----------|


     PM PM PM PM PM PM PM PM PM PM PM PM PM PM PM PM PM PM PM PM
-------------------------------------------------------------------|
-------------------------------------------------------------------|
-------------------------------------------------------------------|
---L---------------------------------------------------------------|
-----------------------------------------------------------------7-|
---L-------------------------------------------------------------5-|
-----0--0--0--0--0--0--0--0--0--0--0--0--0--0--0--0--0--0--0--0----|


                   PM PM PM
------------------------------|----------------------|----------------------|
------------------------------|----------------------|----------------------|
------------------------------|----------------------|----------------------|
------------------------------|----------------------|----------------------|
--L----L---4-L--4-----------9-|----L------7----------|--------------------9-|
--L----L---2-L--2-----------7-|----L------5--------2-|-----L------------L-7-|
-------------------0--2--3----|--------------------0-|-----L------------L---|


                           PM   PM           PM   PM
----------------------|--------------------------------------|
----------------------|--------------------------------------|
----------------------|--------------------------------------|
----------------------|-------7----9-9-9--------7----9-9-9---|
----L------7----------|------------------------------------9-|
----L------5--------2-|--L----5----7-7-7-2-L----5----7-7-7-7-|
--------------------0-|--L-0----0--------0-L-0----0----------|

----------------------|--------------------|-------------------|
----------------------|--------------------|-------------------|
----------------------|--------------------|-------------------|
----------------------|--------------------|-------------------|
----L------7-L--------|--5--------5--------|--2----------------|
----L------5-L--------|--2--------3--------|--0----------------|
----------------------|--------------------|-------------------|


    PM PM   PM PM   PM
---------------------------------------|
---------------------------------------|
---------------------------------------|
-------------------------------------9-|
--4-------4-------4----5-5-5-5-7-7-7---|
--2-2--2--2-2--2--2-2--3-3-3-3-5-5-5-7-|
---------------------------------------|

----------------------------------------|
----------------------------------------|
-------------------------------14-14g11-|
--L------12-12g11---14-14g12------------|
-------------------------------12--12g9-|
--L------10--10g9---12-12g10------------|
----------------------------------------|


                   PM PMPM
----------------------------------------|---------------------------------|
----------------------------------------|---------------------------------|
---L-----L---/12--12-11-9---------------|---------------------------------|
---------------------------11s-12s-11-9-|--L------14-14g12----L-12--11--9-|
---L-----L---/10--10--9-7---------------|---------------------------------|
----------------------------9s-10s--9-7-|--L------12-12g10----L-10---9--7-|
----------------------------------------|---------------------------------|

------------------------------||-----------------------|----------------------|
------------------------------||--/12------------------|----------------------|
------------------------------||-------------11--------|--/12--------9--------|
--L-11s-12---L--------11---9--||---/9------------------|----------------------|
------------------------------||--------------9--------|--/10--------7--------|
--L--9s-10---L---------9---7--||-----------------------|----------------------|
------------------------------||-----------------------|----------------------|


----------------------|-----------------------------|-----------------------|
----------------------|-----------------------------|--/12------------------|
--11--------\7--------|--9----L-7g9s-7s-6-7----6----|-------------11--------|
----------------------|-----------------------------|---/9------------------|
---9--------\5--------|--7----L-5g7s-5s-4-5----4----|--------------9--------|
----------------------|-----------------------------|-----------------------|
----------------------|-----------------------------|-----------------------|

---------------------------------|----------------/15----14----|
------------------14------12s-14-|--15-----L--14---------------|
--/12------11s-12----------------|----------------/12----11----|
------------------11-------9s-11-|--12-----L--11---------------|
--/10-------9s-10----------------|-----------------------------|
---------------------------------|-----------------------------|
---------------------------------|-----------------------------|

--/15----14----/19----17----|
----------------------------|
--/12----11----/16----14----|
----------------------------|
----------------------------|
----------------------------|
----------------------------|

---------------------------------------------------------------------------------|
--15-------------------15-------------------15-------------------15--------------|
-----16p-14---------------16p-14---------------16p-14---------------16p-14-------|
------------16p-15p-14-----------16p-15p-14-----------16p-15p-14-----------16p-1-|
---------------------------------------------------------------------------------|
---------------------------------------------------------------------------------|
---------------------------------------------------------------------------------|


   W
--------------------------------------|
--------------------------------------|
------------7-9-9b-Lpb-Lpbr-L-9b-L----|
---L\----\9---------------------------|
--------------------------------------|
--------------------------------------|
--------------------------------------|


          T        T                 T         T                  T       \1/
----------------------------------------------12p-7h-10p-7-----------------------|
------------------12p-7h-10p-7------12p-7h-10--------------7h-10-12p-10-7-L------|
--7------11p-7h-9--------------7h-9-------------------------------------------7--|h
----7h-9-------------------------------------------------------------------------|
---------------------------------------------------------------------------------|
---------------------------------------------------------------------------------|
---------------------------------------------------------------------------------|

---L----------------------------------------10----10-12p-10-12-|
---L----17~--------------10----10-12p-10-12----12--------------|
---------------/11-9h-11----11---------------------------------|
---------------------------------------------------------------|
---------------------------------------------------------------|
---------------------------------------------------------------|
---------------------------------------------------------------|


                               T
--12b---12---10\---9---12h-14-17p-14p-12h-14-17b-|
-------------------------------------------------|
-------------------------------------------------|
-------------------------------------------------|
-------------------------------------------------|
-------------------------------------------------|
-------------------------------------------------|


   W
---L------17-19-22-19-17----------19-17-17----------19--------17--------|
-------------------------19-18-17----------19-18-17----17s-15----15s-14-|
------------------------------------------------------------------------|
------------------------------------------------------------------------|
------------------------------------------------------------------------|
------------------------------------------------------------------------|
------------------------------------------------------------------------|

--17-16-14-16----14--------14---------------------------------------------------|
--------------17----16h-17----17-16-15-17-16-15---------------------------------|
------------------------------------------------16-15-14------------------------|
---------------------------------------------------------16-15-14-15-16---------|
--------------------------------------------------------------------------------|
--------------------------------------------------------------------------------|
--------------------------------------------------------------------------------|


                                         W           \1
---------------10-------12------14---|---L-----------L--------L----|
---L--------13g13----15g15---17g17pb-|---Lpb---------Lpbr-----L----|
---L---------------------------------|-----------------------------|
-------------------------------------|-----------------------------|
-------------------------------------|-----------------------------|
-------------------------------------|-----------------------------|
-------------------------------------|-----------------------------|


      PM PM PM PM PM PM PM PM PM PM PM PM
---------------------------------------------------|
---------------------------------------------------|
---------------------------------------------------|
---------------------------------------------------|
---------------------------------------------------|
------------------------------8--8--8--8--8-8-5-7~-|
------0--0--0--0--0--0--0--0-----------------------|


      PM PM PM PM PM PM PM PM PM PM PM PM
--------------------------------------------------|
--------------------------------------------------|
--------------------------------------------------|
--------------------------------------------------|
--------------------------------------------------|
--L-L-------------------------------------5-5-8-7-|
------0--0--0--0--0--0--0--0--0--0--0--0----------|


     PM PM PM PM PM PM PM          PM PM PM
----------------------------------------------||----------------------|
----------------------------------------------||----------------------|
----------------------------------------------||----------------------|
----------------------------------------------||----------------------|
--------------------------------------------9-||--L-L------7----------|
--L------------------------(x)\-------------7-||--L-L------5--------2-|
-----0--0--0--0--0--0--0---(x)\----0--2--3----||--------------------0-|

----------------------|----------------------|
----------------------|----------------------|
----------------------|----------------------|
----------------------|----------------------|
--------------------9-|--L-L------7----------|
--L--L------------L-7-|--L-L------5--------2-|
--L--L------------L---|--------------------0-|


    PM   PM           PM   PM
--------------------------------------|----------------------|
--------------------------------------|----------------------|
--------------------------------------|----------------------|
-------7----9-9-9--------7----9-9-9---|----------------------|
------------------------------------9-|----L------7-L--------|
--L----5----7-7-7-2-L----5----7-7-7-7-|----L------5-L--------|
--L-0----0--------0-L-0----0----------|----------------------|

--------------------|-------------------|
--------------------|-------------------|
--------------------|-------------------|
--------------------|-------------------|
--5--------5--------|--2----------------|
--2--------3--------|--0----------------|
--------------------|-------------------|


    PM PM   PM PM   PM
----------------------------------------||
----------------------------------------||
----------------------------------------||
----------------------------------------||
--4-------4-------4----5-5-5-5-7-7-7-9--||
--2-2--2--2-2--2--2-2--3-3-3-3-5-5-5-7--||
----------------------------------------||


     PM      PM PM      PM      PM PM
----------------------------------------|
----------------------------------------|
----------------------------------------|
----------------------------------------|
----------------------------------------|
--2-----5s-4-------2--2----5s-4-------2-|
--0--0--3s-2-0--0--0--0-0--3s-2-0--0--0-|


    PM PM      PM PM    PM PM
----------------------------------------|
----------------------------------------|
----------------------------------------|
----------------------------------------|
----------------------------------------|
----------5s-4-------2------------------|
----0--0--3s-2-0--0--0--0--0--6--0-6s-5-|


     PM      PM PM      PM      PM PM        PM PM      PM PM    PM PM
----------------------------------------|-------------------------------------||
----------------------------------------|-------------------------------------||
----------------------------------------|-------------------------------------||
----------------------------------------|-------------------------------------||
----------------------------------------|-------------------------------------||
--2-----5s-4-------2--2----5s-4-------2-|----------5s-4-------2--------2------||
--0--0--3s-2-0--0--0--0-0--3s-2-0--0--0-|----0--0--3s-2-0--0--0--0--0--0------||


----------------
L - tied note
x - dead note
g - grace note
(n) - ghost note
> - accentuded note
NH - natural harmonic
AH - artificial harmonic
TH - tapped harmonic
SH - semi harmonic
PH - pitch harmonic
h - hammer on
p - pull off
b - bend
br - bendRelease
pb - preBend
pbr - preBendRelease
brb - bendReleaseBend
\n/ - tremolo bar dip
\n - tremolo bar dive
-/n - tremolo bar Release up
/n\ - tremolo bar inverted dip
/n - tremolo bar return
-\n - tremolo bar Release down
S - shift slide
s - legato slide
/ -  slide into from below or out of upwards
\ -  slide into from above or out of downwards
~ - vibrato
W - wide vibrato
tr - trill
TP - tremolo picking
T - tapping
S - slap
P - pop
< - fade in
^ - brush up
v - brush down

            
            
Suggest correction
Creating personal tab
Creating personal tab
You can edit any tab online and save it as your Personal.

You can edit, replace or remove any tab part or add personal notes – all changes will be seen only by you.

Personal tabs can be accessed anytime from any device, even offline.
Learn more »
Give kudos to tab author, rate the tab!
1 2 3 4 5
comments
print report bad tab
guest
You may want to rate the tab now too:
select rating
Wanna post a correction for this tab? Suggest correction