Oops, an error
Loading. Please wait.

Number Four tab

468 views 1 this week
1 commentread comment
1 2 3 4 5
2 more votes to show rating
add to favorites
×
Save as Personal and add changes to this tab that will be seen only by you. Learn more ›
×
You can save this tab as Personal to edit and correct it or add notes. All changes will be seen only by you. Learn more »
launch autoscroll
font size
0
reset
how to read this tab
guitar tuner
edit
Autoscroll
slow
fast
+/-
esc
set tempo
stop
-------------------------------------------------------------------------------
                             NUMBER FOUR - Nodes Of Ranvier
-------------------------------------------------------------------------------
Tabbed by: Herb Portillo
Email: herbert_portillo@umail.ucsb.edu

Tuning: Drop D

(0:00 - 0:35)

e|----------------------------------|----------------------------------------|
B|----------------------------------|----------------------------------------|
G|---------5-----------5-----7--5---|----------------------------------------|
D|---2-----5-----2-----5-----7--5---| x2, end with ---2----------------------|
A|---2-----3-----2-----3-----5--3---|-----------------2----------------------|
D|---2-----5-----2-----5--------5---|-----------------2----------------------|

(0:35 - 1:05)

e|-------------|-------------------------------------------------------------|
B|-------------|-------------------------------------------------------------|
G|---5---------|-------------5-----------------------------------------------|
D|---5-----2---| x3, then ---5--- a couple of times, figure out timing ------|
A|---3-----2---|-------------3-----------------------------------------------|
D|---5-----2---|-------------5-----------------------------------------------|

(1:05 - 1:46)

Guitar 1
e|----------------------------------------------------------------|----------|
B|----------------------------------------------------------------|----------|
G|----------------------------------------------------------------|----------|
D|---/9---7---5---4---5---4------/9---7---5---4---5---4---0---2---|- x3------|
A|----------------------------------------------------------------|----------|
D|----------------------------------------------------------------|----------|

e|---------------------------------------------------------------------------|
B|---------------------------------------------------------------------------|
G|---------------------------------------------------------------------------|
D|---/9---7---5---4---5---4-----/9---7---5---4---5---4---0---4---5---4---2---|
A|---------------------------------------------------------------------------|
D|---------------------------------------------------------------------------|

Guitar 2
e|-------------|-------------------------------------------------------------|
B|-------------|-------------------------------------------------------------|
G|---------5---|---------------------------------5---------------------------|
D|---2-----5---| x4, then let ring---2-----2-----5---------------------------|
A|---2-----3---|---------------------2-----2-----3---------------------------|
D|---2-----5---|---------------------2-----2-----5---------------------------|

(2:25 - 2:31)

e|---------------------------------------------------------------------------|
B|---------------------------------------------------------------------------|
G|---------------------------------------------------------------------------|
D|---9-----9-----0-----9-----12\---------------------------------------------|
A|---9-----9-----0-----9-----12\---------------------------------------------|
D|---9-----9-----0-----9-----12\---------------------------------------------|
     X

(2:31 - end )

e|---------------------------------------------------------------------------|
B|---------------------------------------------------------------------------|
G|---------------------------------------------------------------------------|
D|---0-----7/-----12----11----9----------------------------------------------|
A|---0-----7/-----9-----9-----9----------------------------------------------|
D|---0-----7/-----9-----9-----9----------------------------------------------|

(2:57 - end )

Guitar 2 comes in
e|---14-----12-----10--------------------------------------------------------|
B|---------------------------------------------------------------------------|
G|---------------------------------------------------------------------------|
D|---------------------------------------------------------------------------|
A|---------------------------------------------------------------------------|
D|---------------------------------------------------------------------------|


| /  slide up
| \  slide down
| h  hammer-on
| p  pull-off
| ~  vibrato
| +  harmonic
| x  Mute note
===============================================================================
Suggest correction
Creating personal tab
Creating personal tab
You can edit any tab online and save it as your Personal.

You can edit, replace or remove any tab part or add personal notes – all changes will be seen only by you.

Personal tabs can be accessed anytime from any device, even offline.
Learn more »
Give kudos to tab author, rate the tab!
1 2 3 4 5
comments
print report bad tab
1 comment total.
0 reply
bobbo007 444 Jun 16, 2009 06:14 AM

This tab is a bit off.
its actually drop c (CGCFAD) until about 1:45.
the first 2 chords are
F|---6----2---|
C|---4----0---|
G|---4----0---|
C|---4----0---|
1:05 - 1:46 would be the same except down 2 frets.

The other part that goes with it
e|----------------|
B|----------------|
G|----------------|
D|---4^----0----2-|
A|----------------|
D|----(bend)------|

At 1:45, it goes to drop D. One side is harmonics.
e|----------------------|-------[12]-----[12]--|----------------------|----------------------|
B|-------[19]------[19]-|----------------------|-[12]-[19]-[12]-[19]--|-[12]-[19]-[12]-[19]--|
G|--[12]------[12]------|----------------------|----------------------|----------------------|
D|----------------------|--[7]-------[7]-------|----------------------|----------------------|
A|----------------------|----------------------|----------------------|----------------------|
D|----------------------|----------------------|----------------------|----------------------|
played 3x

the other side is on the off beat. (b string)
b|---12(4x)--|--14(5x)--|--16(5x)--|--16(4x)--|

b|--12(4x)--|--14(5x)--|--16(2x)--17(2x)--16--|

but you can play it like this if you want
e||:-------14---- |-------12---- |-------14----:|| -------14----------14----------16----| -------14----|
B||:----12----12- |----14----14- |----16----16-:|| ----16----17----17----16----16----16-| ----15----15-|
G||:-12---------- |-14---------- |-16----------:|| -16----------16----------16----------| -16----------|
D||:------------- |------------- |-------------:|| -------------------------------------| -------------|
A||:------------- |------------- |-------------:|| -------------------------------------| -------------|
D||:------------- |------------- |-------------:|| --2nd ending-------------------------| -------------|

the first two chords at 2:31 are a little different

3:24 the 2nd part is added
e|--------------------------|
B|---15-----14-----12-------|
G|--------------------------|

guest
Wanna post a correction for this tab? Suggest correction