Oops, an error
Loading. Please wait.

La Carta tab

51 views 3 this week
no commentswrite comment
1 2 3 4 5
3 more votes to show rating
add to favorites
×
Save as Personal and add changes to this tab that will be seen only by you. Learn more ›
×
You can save this tab as Personal to edit and correct it or add notes. All changes will be seen only by you. Learn more »
launch autoscroll
font size
0
reset
how to read this tab
guitar tuner
edit
Autoscroll
slow
fast
+/-
esc
set tempo
stop
Ritmo: Vals Criollo
Tono:  Em

     G                            B7                           Em
E||--7----7----7----5----7----|--7----5----3---------3----5----7----|
B||--8----8----8----7----8----|--8----7----5----5----5----7----8----|
G||---------------------------|-----------------4-------------------|
D||---------------------------|-------------------------------------|
A||---------------------------|-------------------------------------|
E||---------------------------|-------------------------------------|
   G                      B7                       Em
--10----7----5----7----|--10----7----5----7----5|--3----5----3-----|
---8----8----7----8----|---8----8----7----8----7|--5----7----5----5|
-----------------------|------------------------|-----------------4|
-----------------------|------------------------|------------------|
-----------------------|------------------------|------------------|
-----------------------|------------------------|------------------|
  G                           B7                  Em
--7----7----7----5----7----|--7----5----3---------3----5----7----|
--8----8----8----7----8----|--8----7----5----5----5----7----8----|
---------------------------|-----------------4-------------------|
---------------------------|-------------------------------------|
---------------------------|-------------------------------------|
---------------------------|-------------------------------------|
   G                      B7                       Em
--10----7----5----7----|--10----7----5----7----5|--3----5----3-----|
---8----8----7----8----|---8----8----7----8----7|--5----7----5----5|
-----------------------|------------------------|-----------------4|
-----------------------|------------------------|------------------|
-----------------------|------------------------|------------------|
-----------------------|------------------------|------------------|

--------------------12----||
--------------12----------||
--------12----------------||
--14----------------------||
--------------------------||
--------------------------||


      Em
Yo te escribi
   B7           Em
un carta cierto dia
   B7
la carta que hasta tus manos
    Em
no llegara

     B7           Em
//En ella yo te rogaba
     B7           Em
  en ella yo te pedia
         G
  que vuelvas pronto
      B7           Em
  que vuelvas vida mia// (bis)

C
Pero ya ves

esa herida que dejaste

fue lo que me impido
             G
que lo sepas tu

      B7             Em
//Que aun llora mi corazon
      B7             Em
  y a pesar de tu traicion
        G
  te quiero ingrata
     B7         Em
  te quiero todavia// (bis)

C
La carta la guardare

como un recuerdo

si de pronto vuelves
                  G
y ya... ya no te quiera

  B7            Em
//Entonces la rompere
  B7              Em
  en mil pedazos porque
           G     B7      Em
  con eso borro todo lo pasado//

SALUDOS A TODOS DESDE QUITO - ECUADOR
Agosto 2011 - Luis Cubero
CUALQUIER DUDA undeseounico@

Viva la musica ecuatoriana carajo

Powered by osobebe
Suggest correction
Creating personal tab
Creating personal tab
You can edit any tab online and save it as your Personal.

You can edit, replace or remove any tab part or add personal notes – all changes will be seen only by you.

Personal tabs can be accessed anytime from any device, even offline.
Learn more »
Give kudos to tab author, rate the tab!
1 2 3 4 5
comments
print report bad tab
guest
Wanna post a correction for this tab? Suggest correction