Oops, an error
Loading. Please wait.

Kahit Maputi Na Ang Buhok Ko tab

version 6
version 6

Whole song

469 views 39 this week
no commentswrite comment
1 2 3 4 5
x 3
add to favorites
×
Save as Personal and add changes to this tab that will be seen only by you. Learn more ›
×
You can save this tab as Personal to edit and correct it or add notes. All changes will be seen only by you. Learn more »
launch autoscroll
font size
0
reset
how to read this tab
guitar tuner
edit
Autoscroll
slow
fast
+/-
esc
set tempo
stop
About this tab version
Please message me if you don't understand something about the tab :D. Was this info helpful? Yes No
Kahit Maputi Na Ang Buhok Ko by : Noel Cabangon
Arranged by : Carlo James M. Del Valle
Tuning : Standard 
Capo : 2nd Fret

[Intro]

e|--0h2-----2--2h3--------3-|-3s5-----5s7--5--3-----3h5--3--|
B|--3-------3--3----------3-|--------------0-------------0--|
G|-------2-------------2----|-------------------------------|
D|--0----------0----0-------|------0-------------0----------|
A|--------------------------|-------------------------------|
E|----------x-------------x-|--------------x-------------x--|

e|--2-----2--2h3--------3--3s5-----|
B|--3-----3--3----------3----------|
G|-----2--2----------2-------------|
D|--0--------0----0-------------0--|
A|---------------------------------|
E|--------x-------------x----------|


[Verse 1]

e|---------------0-0-----0h2-----2-------2-|-0--0--2-----2--------2--2-----3--0-|----------0--------0--------|
B|---------3-3-----------3-------3-------3-|----2--2-----2--------2--------3----|----3--3-----------3--2--2--|
G|--2-2-2-----------------------------2--2-|----2--------------2----------------|-------0-----------------0--|
D|--------------------0----------0-0-------|----0--------0--0-------------------|----------------------------|
A|-----------------------------------------|------------------------------------|-------------0-----0--------|
E|----------------------------x----------x-|----------x-----------x-----0--x----|-0-----x--------x--------x--|

e|--0--0--2-----2-------2--0--0--2---|--2--------2--2-----3--0-----------0-----|
B|-----3--------3-------3-----2--2---|--2--------2--------3--------3--3--------|
G|-----2-------------2--2-----2------|--------2-----------------------0--------|
D|-----0--------0-0-----------0------|--0--0-----------------------------------|
A|-----------------------------------|--------------------------------------0--|
E|-----------x----------x-----------x|-----------x-----0--x-----0-----x--------|


[Chorus]

e|-----0--0----2-----3--5--5--5--5--5--5--6--|--6-----2--0--2--0----------------|----2--0--2--0--------------|
B|--------3-------------2--2-----2--2-----2--|--------2--------------3-----3--3-|----3-----3--------3--3--0--|
G|--------2-------------2-----------------2--|-----------------------2-----2--2-|-2--2-----------------2--0--|
D|-------------------------------------------|----------------------------------|----0-----------0-----------|
A|--------0-0--------------------------------|--------------------2--------2----|----------------------------|
E|--x-------------x-----2--x-----2--x-----2-2|-----x--2-----x-----------x-----x-|----------x-----------x-----|

e|---------------------------------|--0--2-----2---------2-------2--|
B|-----0--0--0--3--2-----2--0------|--3--------3---------3-------3--|
G|-----0-----0--0--------0--------2|--2-----------2---2-------2-----|
D|---------------------------------|--------0-------0-------0-------|
A|--------------------0--------0---|--------------------------------|
E|--3--x-----3--x--------x---------|--x--------x---------x-------x--|

e|--2--2----3-----3s5--5--5--7--7--7--7-|-7--7--7--7s9-----7--7---|--5-----5--5--5--5-----5-----|
B|-----3---------------0--0-----0--0----|-0-----0----------0------|--2-----2--2--2--0-----2-----|
G|-----2---------------0----------------|-------------------------|--2-----2--2-----------2-----|
D|-----0-0------------------------------|-------------------------|-----------------------------|
A|--------------------------------------|-0-------------0---------|--------------------0--------|
E|-------------x-------3--x-----3--x----|-------x----------x-----2|-----x--2-----x-----------x--|

e|--5----5-----3s2--5s7-----7---|-----------------------------|
B|--0---------------0-------0---|-0--0--0h2--------2----0-----|
G|--0---------------------------|------------------0-------2--|
D|------------------------------|-----------------------------|
A|------------------------------|------------0-----0-0--------|
E|--0-0-----x-------0----x--0-0-|----x----------x----------x--|

e|--0h2-----2--2h3--------3--3s5|-----5s7--5--3-----3h5--3--|
B|--3-------3--3----------3-----|----------0-------------0--|
G|-------2-------------2--------|---------------------------|
D|--0----------0----0-----------|--0-------------0----------|
A|------------------------------|---------------------------|
E|----------x-------------x-----|----------x-------------x--|

e|--2-----2--2h3--------3--3s5-----|
B|--3-----3--3----------3----------|
G|-----2--2----------2-------------|
D|--0--------0----0-------------0--|
A|---------------------------------|
E|--------x-------------x----------|


[Verse 2]

e|---------------0-0-----0h2-----2|-------2--0--0--2-----2--------|2--2-----3--0-----------0--------0--------|
B|---------3-3-----------3-------3|-------3-----2--2-----2--------|2--------3--------3--3-----------3--2--2--|
G|--2-2-2-------------------------|----2--2-----2--------------2--|---------------------0-----------------0--|
D|--------------------0----------0|-0-----------0--------0--0-----|------------------------------------------|
A|--------------------------------|-------------------------------|---------------------------0-----0--------|
E|----------------------------x---|-------x-----------x-----------|x-----0--x-----0-----x--------x--------x--|

e|--0--0--2-----2-------2--0-|-0--2-----2--------2--|2-----3--0-----------0-----|
B|-----3--------3-------3----|-2--2-----2--------2--|------3--------3--3--------|
G|-----2-------------2--2----|-2--------------2-----|------------------0--------|
D|-----0--------0-0----------|-0--------0--0--------|---------------------------|
A|---------------------------|----------------------|------------------------0--|
E|-----------x----------x----|-------x-----------x--|---0--x-----0-----x--------|

[Chorus 2]

e|-----0--0----2-----3--5--5--5--5--5--5--6---|-6-----2--0--2--0--------|------------2--0--2--0--------------|
B|--------3-------------2--2-----2--2-----2---|-------2--------------3--|---3--3-----3-----3--------3--3--0--|
G|--------2-------------2-----------------2---|----------------------2--|---2--2--2--2-----------------2--0--|
D|--------------------------------------------|-------------------------|------------0-----------0-----------|
A|--------0-0---------------------------------|-------------------2-----|---2--------------------------------|
E|--x-------------x-----2--x-----2--x-----2-2-|----x--2-----x-----------|x-----x-----------x-----------x-----|

e|-------------------------------|----0--2-----2---------2-------2--|
B|-----0--0--0--3--2-----2--0----|----3--------3---------3-------3--|
G|-----0-----0--0--------0-------|-2--2-----------2---2-------2-----|
D|-------------------------------|----------0-------0-------0-------|
A|--------------------0--------0-|----------------------------------|
E|--3--x-----3--x--------x-------|----x--------x---------x-------x--|

e|--2--2----3-----3s5--5--5--7-|-7--7--7--7--7--7--7s9---|--7--7-----5-----5--5--5--5-----5-----|
B|-----3---------------0--0----|-0--0-----0-----0--------|--0--------2-----2--2--2--0-----2-----|
G|-----2---------------0-------|-------------------------|-----------2-----2--2-----------2-----|
D|-----0-0---------------------|-------------------------|--------------------------------------|
A|-----------------------------|----------0-------------0|-----------------------------0--------|
E|-------------x-------3--x----|-3--x-----------x--------|--x-----2-----x--2-----x-----------x--|

e|--5----5-----3s2--5s7-----7--|------------------------------|
B|--0---------------0-------0--|--0--0--0h2--------2----0-----|
G|--0--------------------------|-------------------0-------2--|
D|-----------------------------|------------------------------|
A|-----------------------------|-------------0-----0-0--------|
E|--0-0-----x-------0----x--0-0|-----x----------x----------x--|

[Bridge/Solo]

e|--0h2-----2--2--2----------------|-------2-----0-----0-----2---|--2--0--2--0-------------------------------|
B|--3-------3--3--3--2-----2--2--2-|-0-----3--------3--------3---|--3-----3--------3-----3--3--3--------3----|
G|--2-------2--2-----2-----2--2--2-|-0-----------------------2---|--2--------------2-----2--2--2--2-----2----|
D|--0-------0--------2-----2--2--2-|----0-----0------------------|-------------------------------------------|
A|-------------------0-----0-------|-----------------------------|-------------------------------------------|
E|-------x--------x-----x--------x-|-------x--------x-----2-----x|--2-----x-----3-----x--3-----x-----3-----x-|

e|-----------0-----5--0---|-----5--0--------5--0---|-------------------------------|
B|--0--3--3--------2------|--2--2--------2--2------|--3-----3----3--------3-----3--|
G|--2-----2---------------|------------------------|--0-----0----0-----0--0-----0--|
D|------------------------|------------------------|-------------------------------|
A|------------------------|------------------------|-------------------------------|
E|--0-----x-----2--x-----2|-----x-----2-----x-----2|-----x--3-3--x--3-----x--3--x--|

[Outro]

e|--0--0----2-----3--5--5--5--5--5-|-5--6----6-----2--0--2--0----|----------------2--0--2--0--------------|
B|-----3-------------2--2-----2--2-|----2----------2-------------|-3-----3--3-----3-----3--------3--3--0--|
G|-----2-------------2-------------|----2------------------------|-2-----2--2--2--2-----------------2--0--|
D|---------------------------------|-----------------------------|----------------0-----------0-----------|
A|-----0-0-------------------------|---------------------------2-|-------2--------------------------------|
E|-------------x-----2--x-----2--x-|----2-2-----x--2-----x-------|----x-----x-----------x-----------x-----|

e|-------------------------------|----0--2-----2---------2-------2--|
B|-----0--0--0--3--2-----2--0----|----3--------3---------3-------3--|
G|-----0-----0--0--------0-------|-2--2-----------2---2-------2-----|
D|-------------------------------|----------0-------0-------0-------|
A|--------------------0--------0-|----------------------------------|
E|--3--x-----3--x--------x-------|----x--------x---------x-------x--|

e|--2--2----3-----3s5--5--5--7-|-7--7--7--7--7--7--7s9-----7--|7-----5-----5--5--5--5-----5-----|
B|-----3---------------0--0----|-0--0-----0-----0----------0--|------2-----2--2--2--0-----2-----|
G|-----2---------------0-------|------------------------------|------2-----2--2-----------2-----|
D|-----0-0---------------------|------------------------------|---------------------------------|
A|-----------------------------|----------0-------------0-----|------------------------0--------|
E|-------------x-------3--x----|-3--x-----------x----------x--|---2-----x--2-----x-----------x--|

e|--5----5-----3s2--5s7-----7--|------------------------------|
B|--0---------------0-------0--|--0--0--0h2--------2----0-----|
G|--0--------------------------|-------------------0-------2--|
D|-----------------------------|------------------------------|
A|-----------------------------|-------------0-----0-0--------|
E|--0-0-----x-------0----x--0-0|-----x----------x----------x--|

e|--0h2-----2--2h3--------3--3s5|-----5s7--5--3-----3h5--3--|
B|--3-------3--3----------3-----|----------0-------------0--|
G|-------2-------------2--------|---------------------------|
D|--0----------0----0-----------|--0-------------0----------|
A|------------------------------|---------------------------|
E|----------x-------------x-----|----------x-------------x--|

e|--2-----2--2h3--------3--3s5---|------------------------------|-<12>--<12>-----2<14>--------------------|
B|--3-----3--3----------3--------|----------------3<15>-|-3<15>-|-----------------------------------------|
G|-----2--2----------2-----------|--2<14>--2<14>----------------|-----------------------------------------|
D|--0--------0----0-------------0|------------------------------|-------------0---------------------------|
A|-------------------------------|------------------------------|-----------------------------------------|
E|--------x-------------x--------|------------------------------|-----------------------------------------|


************************************

| x   Slap
| h   Hammer-on
| p   Pull-off
| s   Slide
| <>  Harmonics

************************************

            
            
Suggest correction
Creating personal tab
Creating personal tab
You can edit any tab online and save it as your Personal.

You can edit, replace or remove any tab part or add personal notes – all changes will be seen only by you.

Personal tabs can be accessed anytime from any device, even offline.
Learn more »
Give kudos to tab author, rate the tab!
1 2 3 4 5
comments
print report bad tab
guest
You may want to rate the tab now too:
select rating
Wanna post a correction for this tab? Suggest correction