Oops, an error
Loading. Please wait.

Come On Outside Tab

2,766 views 7 this week
no commentswrite comment
1 2 3 4 5
please rate
add to favorites
launch autoscroll
font size
0
reset
how to read this tab
guitar tuner
Tab Pro tools
  • play this tab
  • loop segment
  • change instrument
  • show fretboard
  • metronome
×
Best way to learn
"Come On Outside"
Autoscroll
slow
fast
+/-
esc
set tempo
stop
Contributor
-------------------------------------------------------------------------------
                             Come on Outside - Noel Gallagher
-------------------------------------------------------------------------------
Tabbed by: Casey Copestick

http://www.youtube.com/watch?v=jzbdun1ohd0

AMAZING unreleased demo that was meant to go on DOYS. Sounds like a Bond movie tune.

Tuning: Std EADGBe



INTRO (Bass guitar)            Both parts x3             then part 1 then F#

                      (part 1)              (Part 2)     

G|---------------------------------------------------------------------------|
D|---------------------------------------------------------------------------|
A|--------------------------------------------5---5-7b-5---------------------|
E|---7-7-7-7-7-5--7-7-7-7-7-5--7-7-7-7-7-5-7----7-----------------------2----|


VERSE 1 


 1) To the people lost and lonely  in the fortress of your mind
 3) To the People taking shelter    On the city streets tonight 

     B                               D
     
e|-----------------------------------2---------------------------------------|
B|-----------------------------------3---------------------------------------|
G|---4-------------------------------2---------------------------------------|
D|---4-----------------------------------------------------------------------|
A|---2-----------------------------------------------------------------------|
E|---------------------------------------------------------------------------|

 2) Come on      Outsideee
 4) Come on      Insideee

     G               B

e|---3-----------------------------------------------------------------------|
B|---3-----------------------------------------------------------------------|
G|---0---------------4-------------------------------------------------------|
D|---0---------------4-------------------------------------------------------|
A|---2---------------2-------------------------------------------------------|
E|---3-----------------------------------------------------------------------|


CHORUS 1 

5) The Voices in your head get so loud  
6) And your problems are the size of a cloud
7) When the world and his wife get you down

    G                A             B           F#

e|--3------------------------------------------------------------------------|
B|--3----------------2-------------------------------------------------------|
G|--0----------------2-------------4-----------------------------------------|
D|--0----------------2-------------4------------4----------------------------|
A|--2------------------------------2------------4----------------------------|
E|--3-------------------------------------------2----------------------------|


8) Come onnnn Outsideeeeee

    G           B

e|---------------------------------------------------------------------------|
B|---------------------------------------------------------------------------|
G|---------------------------------------------------------------------------|
D|--5-----------9------------------------------------------------------------|
A|--5-----------9------------------------------------------------------------|
E|--3-----------7------------------------------------------------------------|


9) Come onnnn

    G             E         G

e|-----------------------------------------------------------------------------|
B|-----------------------------------------------------------------------------|
G|----------------9------------------------------------------------------------|
D|--5-------------9--------5---------------------------------------------------|
A|--5-------------7--------5---------------------------------------------------|
E|--3----------------------3---------------------------------------------------|


BRIDGE 1

 *RHYTHM GUITAR*           x4, 4th time end with F#

    B       D      E                                             

e|---------------------------------------------------------------------------|
B|---------------------------------------------------------------------------|
G|----------7------9---------------------------------------------------------|
D|--9-------7------9------------------------------4--------------------------|
A|--9-------5------7------------------------------4--------------------------|
E|--7---------------------------------------------2--------------------------|

  *LEAD GUITAR* 
                         Both parts x3                 then part 1 then F#
                    
          (part 1)                            (part 2)         
e|---------------------------------------------------------------------------|
B|---------------------------------------------------------------------------|
G|---------------------------------------------------------------------------|
D|---------------------------------------------------------------------------|
A|--------------------------------------------5---5-7b-5---------------------|
E|---7-7-7-7-7-5--7-7-7-7-7-5--7-7-7-7-7-5-7----7-----------------------2----|


VERSE 2


 10) To the man who loves his woman        To the day that she will die
 13) To the sons and daughters dreaming    Of a life they'll never find 

     B                                    D
     
e|----------------------------------------2----------------------------------|
B|----------------------------------------3----------------------------------|
G|---4------------------------------------2----------------------------------|
D|---4-----------------------------------------------------------------------|
A|---2-----------------------------------------------------------------------|
E|---------------------------------------------------------------------------|

 12) Come on       It's alrighttt
 14) Come on       It's alrighttt

     G               B

e|---3-----------------------------------------------------------------------|
B|---3-----------------------------------------------------------------------|
G|---0---------------4-------------------------------------------------------|
D|---0---------------4-------------------------------------------------------|
A|---2---------------2-------------------------------------------------------|
E|---3-----------------------------------------------------------------------|


CHORUS 2

15) When the Voices in your head get so loud  
16) And your problems are the size of a cloud
17) When the world and his wife get you down

    G                A             B           F#

e|--3------------------------------------------------------------------------|
B|--3----------------2-------------------------------------------------------|
G|--0----------------2-------------4-----------------------------------------|
D|--0----------------2-------------4------------4----------------------------|
A|--2------------------------------2------------4----------------------------|
E|--3-------------------------------------------2----------------------------|

18) Come onnnn It's alrightttt

    G           B

e|---------------------------------------------------------------------------|
B|---------------------------------------------------------------------------|
G|---------------------------------------------------------------------------|
D|--5-----------9------------------------------------------------------------|
A|--5-----------9------------------------------------------------------------|
E|--3-----------7------------------------------------------------------------|


19) Come onnnn

    G             E         G

e|-----------------------------------------------------------------------------|
B|-----------------------------------------------------------------------------|
G|----------------9------------------------------------------------------------|
D|--5-------------9--------5---------------------------------------------------|
A|--5-------------7--------5---------------------------------------------------|
E|--3----------------------3---------------------------------------------------|


SOLO 1


 *RHYTHM GUITAR*                          x2 then

    B      G      E     G     A    B                 F#                                 

e|---------------------------------------------------------------------------|
B|---------------------------------------------------------------------------|
G|----------------9----------------------------------------------------------|
D|--9------5------9-----5----7-----9------------------4----------------------|
A|--9------5------7-----5----7-----9------------------4----------------------|
E|--7------3------------3----5-----7------------------2----------------------|

  *LEAD GUITAR*                                         x2 then
                                                                                                 
e|---------------------------------------------------------------------------|
B|---------------------------------------------------------------------------|
G|---------------------------------------------------------------------------|
D|---------------------------------------------------------------------------|
A|-----------------------------7-7-7-----------------------------------------|
E|---7-7-7-7-7-5-5-7-7-5-3-3-3-------3-3-3-5-5-5-7-7-7-------------2---------|



CHORUS 3

20) The Voices in your head get so loud  
21) And your problems are the size of a cloud
22) When the world and his wife get you down

    G                A             B           F#

e|--3------------------------------------------------------------------------|
B|--3----------------2-------------------------------------------------------|
G|--0----------------2-------------4-----------------------------------------|
D|--0----------------2-------------4------------4----------------------------|
A|--2------------------------------2------------4----------------------------|
E|--3-------------------------------------------2----------------------------|


23) Come onnnn                          It's alrightttt

     G           E         G            B

e|-----------------------------------------------------------------------------|
B|-----------------------------------------------------------------------------|
G|----------------9------------------------------------------------------------|
D|--5-------------9--------5------------9--------------------------------------|
A|--5-------------7--------5------------9--------------------------------------|
E|--3----------------------3------------7--------------------------------------|



24) Come onnnn

    G             E         G

e|-----------------------------------------------------------------------------|
B|-----------------------------------------------------------------------------|
G|----------------9------------------------------------------------------------|
D|--5-------------9--------5---------------------------------------------------|
A|--5-------------7--------5---------------------------------------------------|
E|--3----------------------3---------------------------------------------------|


OUTRO


 *RHYTHM GUITAR*                                   Fade out..

    B      G      E     G     A    B                                                 

e|---------------------------------------------------------------------------|
B|---------------------------------------------------------------------------|
G|----------------9----------------------------------------------------------|
D|--9------5------9-----5----7-----9-----------------------------------------|
A|--9------5------7-----5----7-----9-----------------------------------------|
E|--7------3------------3----5-----7-----------------------------------------|

  *LEAD GUITAR*                                   Fade out..
                                                                                                 
e|---------------------------------------------------------------------------|
B|---------------------------------------------------------------------------|
G|---------------------------------------------------------------------------|
D|---------------------------------------------------------------------------|
A|-----------------------------7-7-7-----------------------------------------|
E|---7-7-7-7-7-5-5-7-7-5-3-3-3-------3-3-3-5-5-5-7-7-7-----------------------|




************************************

| /   slide up
| \   slide down
| h   hammer-on
| p   pull-off
| ~   vibrato
| +   harmonic
| x   Mute note
| b   Bend
| pb  Pre-bend
| br  Bend release
| pbr Pre-bend release
| brb Bend release bend

************************************
comments
We did not receive enough feedback on this tab! Please rate:
print report bad tab
1 2 3 4 5
I want to post or [tab]
guest
You may want to rate the tab now too:
select rating
Please do not post tabs as comments. Select "correction" instead!