Oops, an error
Loading. Please wait.

Dream On Bass Tab

1,581 views 6 this week
no commentswrite comment
1 2 3 4 5
please rate
add to favorites
launch autoscroll
font size
0
reset
guitar tuner
Tab Pro tools
  • play this tab
  • loop segment
  • change instrument
  • show fretboard
  • metronome
×
Best way to learn
"Dream On"
Autoscroll
slow
fast
+/-
esc
set tempo
stop
Contributor
Difficulty
novice
NOEL GALLAGHER:DREAM ON  
TABBED BY:stevegreen775 08/04/12


Step 1: x1            
  1 2 |1 2 3 4 |
G|----|--------|
D|----|--------|
A|----|--------|
E|0---|~-~-~-~-|

Step 2: x4
  1 2 3 4 |1 2 3 4 |1 2 3 4 |1 2 3 4 |
G|--------|--------|5-------|--------| 
D|--------|8---7---|--------|5---7---|
A|7-------|--------|--------|--------|
E|--------|--------|--------|--------|

Step 3: x4
  1 2 3 4 |1 2 3 4 |
G|5-5-5-5-|--------|
D|--------|7-7-7-7-|
A|--------|--------|
E|--------|--------|

Step 4: x1 
  1 2 3 4 |
G|7-7-8---|
D|--------|
A|--------|
E|--------|

Step 5: x2
  1 2 3 4 |1 2 3 4
G|--------|5-5-5-5-|
D|--------|--------|
A|7-7-7-7-|--------|
E|--------|--------|

Step 6: x2
  1 2 3 4 |1 2 3 4 |
G|--------|5-5-5-5-|
D|5-5-5-5-|--------|
A|--------|--------|
E|--------|--------|

Step 7: x1 
  1 2 3 4 |1 2 3 4 |
G|--------|--------|
D|7-7-7-7-|7-7-7-7-|
A|--------|--------|
E|--------|--------|

Step 8: Repeat Step 2 x2 only , not x4

Step 9: Repeat Step's 3,4,5,6  

Step 10: Repeat Step's 5,6 

Step 11: Repeat Step 7

Step 12a: x1
  1 2 3 4 |1 2 3 4 |1 2 3 4 |1 2 3 4 |              
G|5-5-5-5-|----7-7-|--------|--------|
D|--------|5-5-----|7-7-7-7-|7-7-7-7-|
A|--------|--------|--------|--------|
E|--------|--------|--------|--------|

Step 12b: x1
  1 2 3 4 |1 2 3 4 |1 2 3 4 |
G|5-5-5-5-|7-7-7-7-|7-7-8---|
D|--------|--------|--------|
A|--------|--------|--------|
E|--------|--------|--------|

Step 13: Repeat Step's 5,6 

Step 14: Repeat Step's 5,6

Step 15: x10
  1 2 3 4 |1 2 3 4 |
G|--------|5-5-5-5-|
D|5-5-5-5-|--------|
A|--------|--------|
E|--------|--------|

Step 16: x4
  1 2 3 4 |1 2 3 4 |
G|-----------------|
D|--------|8-8-7-7-|
A|7-7-7-7-|--------|
E|--------|--------|

Step 17: x1
  1 2 3 4 |
G|5-------|
D|--------|
A|--------|
E|--------|

17 Easy Step's
Comments welcome
stevegreen775@gmail.com

comments
We did not receive enough feedback on this tab! Please rate:
print report bad tab
1 2 3 4 5
I want to post or [tab]
guest
You may want to rate the tab now too:
select rating
Please do not post tabs as comments. Select "correction" instead!