Oops, an error
Loading. Please wait.

If I Had A Gun Bass Tab

3,464 views 24 this week
3 commentsread comments
1 2 3 4 5
3 more votes to show rating
add to favorites
launch autoscroll
font size
0
reset
guitar tuner
Autoscroll
slow
fast
+/-
esc
set tempo
stop
Help us to improve Ultimate-Guitar.com Take our survey!
×
Author
Difficulty
novice
NOEL GALLAGHER:IF I HAD A GUN 
TABBED BY:stevegreen775 30/03/12


Step 1: x2            
  1+2+3+4+5+6+7+8+
G|----------------|
D|----------------|
A|----------------|
E|5---7---2-------|

Step 2: x2
  1+2+3+4+5+6+7+8+|1+2+3+4+5+6+7+8+
G|----------------|----------------| 
D|----------------|----------------|
A|----------------|----------------|
E|5-------2-------|5---7---2-------|

Step 3: x2
  1+2+3+4+5+6+7+8+
G|----------------|
D|----------------|
A|----------------|
E|5-5-7-7-2-2-2-2-|

Step 4: x1
  1+2+3+4+5+6+7+8+|1+2+3+4+5+6+7+8+
G|----------------|----------------|
D|----------------|----------------|
A|----------------|----------------|
E|5-5-5-5-2-2-2-2-|5-5-7-7-2-2-2-2-|

Step 5: x1
  1+2+3+4+5+6+7+8+|1+2+3+4+5+6+7+8+
G|----------------|----------------|
D|----------------|----------------|
A|----------------|----------------|
E|5-5-5-5-2-2-2-2-|5-5-7-7-2-2-0-0-|

Step 6: x1
  1+2+3+4+5+6+7+8+|1+2+3+4+5+6+7+8+|1+2+3+4+5+6+7+8+|1+2+3+4+5+6+7+8+|
G|----------------|----------------|----------------|----------------|
D|----------------|----------------|----------------|----------------|
A|55555555--------|55555555--------|55555555--------|--------55555555|
E|--------55555555|--------22220000|--------55550000|77777777--------|

Step 7: x3
  1+2+3+4+5+6+7+8+
G|----------------|
D|----------------|
A|----------------|
E|5555777722222222|

Step 8: x1
  1+2+3+4+5+6+7+8
G|----------------|
D|----------------|
A|----------------|
E|5555777722220000|

Step 9: x1
  1+2+3+4+5+6+7+8+|1+2+3+4+5+6+7+8+|1+2+3+4+5+6+7+8+|1+2+3+4+5+6+7+8+
G|----------------|----------------|----------------|----------------|
D|----------------|----------------|----------------|----------------|
A|55555555--------|55555555--------|55555555--------|--------55555555|
E|--------55555555|--------22220000|--------55550000|77777777--------|

Step 10: x1
  1+2+3+4+5+6+7+8+|
G|----------------|
D|----------------|
A|----------------|
E|5555555500000000|

Step 11: x7
  1+2+3+4+5+6+7+8+|
G|----------------|
D|----------------|
A|----5555----7777|
E|7777----5555----|

Step 12: x1
  1+2+3+4+5+6+7+8+|
G|----------------|
D|----------------|
A|--------55555555|
E|77777777--------|

Step 13: x2
  1+2+3+4+5+6+7+8+|
G|----------------|
D|----------------|
A|----------------|
E|5555777722222222|

Step 14: x1
  1+2+3+4+5+6+7+8+|1+2+3+4+5+6+7+8+|
E|----------------|----------------|
D|----------------|----------------|
A|----------------|----------------|
E|5-------2-------|5---7---2-------|



14 Easy steps . 
Comments welcome
stevegreen775@gmail.com

Suggest correction
Give kudos to tab author, rate the tab!
1 2 3 4 5
comments
print report bad tab
3 comments total.
0 reply
stevegreen775 52 Apr 03, 2012 10:45 AM

oops sorry , part 11 (bridge 4) should be x7 not x8

0 reply
stevegreen775 52 Apr 07, 2012 04:25 AM

have corrected it now

0 reply
bigtarl6 10 Jul 11, 2013 12:05 PM

this should be played after step 11

1+2+3+4+5+6+7+8+|1+2+3+4+5+6+7+8+|1+2+3+4+5+6+7+8+|1+2+3+4+5+6+7+8+
G|----------------|----------------|----------------|----------------|
D|----------------|----------------|----------------|----------------|
A|55555555--------|55555555--------|55555555--------|--------55555555|
E|--------55555555|--------22220000|--------55550000|77777777--------|

guest
You may want to rate the tab now too:
select rating
Wanna post a correction for this tab? Suggest correction