Oops, an error
Loading. Please wait.

Ballad Of The Mighty I bass

997 views 24 this week
no commentswrite comment
1 2 3 4 5
x 3
add to favorites
×
Save as Personal and add changes to this tab that will be seen only by you. Learn more ›
×
You can save this tab as Personal to edit and correct it or add notes. All changes will be seen only by you. Learn more »
launch autoscroll
font size
0
reset
guitar tuner
edit
Autoscroll
slow
fast
+/-
esc
set tempo
stop
Author
Difficulty
Intro:

|--------------------------------------------------------------------------------------|
|--------------------------------------------------------------------------------------|
|-11---11---11--11--11-11---11---11--11--11-11---11---11--11--11-11---11---11-11-11-11-|
|--------------------------------------------------------------------------------------| X2

Verse:

"I followed you down to the end of the world"

|--------------------------------------------------------------------------------------|
|--------------------------------------------------------------------------------------|
|-11---11---11--11--11-11---11---11--11--11-11---11---11--11--11-11---11---11-11-11-11-|
|--------------------------------------------------------------------------------------| X4

"You put me up like a fly on the wall"

|-----------------------------------------------------------------|
|-----------------------------------------------------------------|
|-----------------------------------------------------------------|
|-8---8---8--8--8-8---8---8--8--8-8---8---8--8--8-8---8---8--8--8-|

"You'll be to blame when the heavens fall"

|-----------------------------------------------------------------|
|-----------------------------------------------------------------|
|-----------------------------------------------------------------|
|-6---6---6--6--6-6---6---6--6--6-6---6---6--6--6-6---6---6--6--6-|

"Give me a sign if you hear me call"

|--------------------------------------------------------------------------------------|
|--------------------------------------------------------------------------------------|
|-11---11---11--11--11-11---11---11--11--11-11---11---11--11--11-11---11---11-11-11-11-|
|--------------------------------------------------------------------------------------| X2

"The colours around me are fading away"

|-----------------------------------------------------------------|
|-----------------------------------------------------------------|
|-----------------------------------------------------------------|
|-8---8---8--8--8-8---8---8--8--8-8---8---8--8--8-8---8---8--8--8-|

"And I'll be waiting come what may"

|-----------------------------------------------------------------|
|-----------------------------------------------------------------|
|-6---6---6--6--6-6---6---6--6--6-6---6---6--6--6-6---6---6--6--6-|
|-----------------------------------------------------------------|

Chorus:

"I'll find you"

|-----------------------------------------------------------------|
|-----------------------------------------------------------------|
|-8---8---8--8--8-8---8---8--8--8---------------------------------|
|---------------------------------8---8---8--8--8-8---8---8--8--8-| X2


|-----------------------------------------------------------------|
|-----------------------------------------------------------------|
|-6---6---6--6--6-6---6---6--6--6---------------------------------|
|---------------------------------6---6---6--6--6-6---6---6--6--6-|

|-----------------------------------------------------------------|
|-----------------------------------------------------------------|
|-----------------------------------------------------------------|
|-8---8---8--8--8-8---8---8--8--8-8---8---8--8--8-8---8---8--8--8-|

Interlude:

|--------------------------------------------------------------------------------------|
|--------------------------------------------------------------------------------------|
|-11---11---11--11--11-11---11---11--11--11-11---11---11--11--11-11---11---11-11-11-11-|
|--------------------------------------------------------------------------------------| X2

Verse:

|--------------------------------------------------------------------------------------|
|--------------------------------------------------------------------------------------|
|-11---11---11--11--11-11---11---11--11--11-11---11---11--11--11-11---11---11-11-11-11-|
|--------------------------------------------------------------------------------------| X4

"I'll give you the world if you take my hand"

|-----------------------------------------------------------------|
|-----------------------------------------------------------------|
|-----------------------------------------------------------------|
|-8---8---8--8--8-8---8---8--8--8-8---8---8--8--8-8---8---8--8--8-|

"But you left me alone in the sinking sand"

|-----------------------------------------------------------------|
|-----------------------------------------------------------------|
|-----------------------------------------------------------------|
|-6---6---6--6--6-6---6---6--6--6-6---6---6--6--6-6---6---6--6--6-|

"Strike up the ballad for one last stand"

|--------------------------------------------------------------------------------------|
|--------------------------------------------------------------------------------------|
|-11---11---11--11--11-11---11---11--11--11-11---11---11--11--11-11---11---11-11-11-11-|
|--------------------------------------------------------------------------------------| X2

"Show me the rules of the game you play"

|-----------------------------------------------------------------|
|-----------------------------------------------------------------|
|-----------------------------------------------------------------|
|-8---8---8--8--8-8---8---8--8--8-8---8---8--8--8-8---8---8--8--8-|

"And I'll be waiting come what may"

|-----------------------------------------------------------------|
|-----------------------------------------------------------------|
|-6---6---6--6--6-6---6---6--6--6-6---6---6--6--6-6---6---6--6--6-|
|-----------------------------------------------------------------|

Chorus:

"I'll find you"

|-----------------------------------------------------------------|
|-----------------------------------------------------------------|
|-8---8---8--8--8-8---8---8--8--8---------------------------------|
|---------------------------------8---8---8--8--8-8---8---8--8--8-| X2


|-----------------------------------------------------------------|
|-----------------------------------------------------------------|
|-6---6---6--6--6-6---6---6--6--6---------------------------------|
|---------------------------------6---6---6--6--6-6---6---6--6--6-|

|-----------------------------------------------------------------|
|-----------------------------------------------------------------|
|-8---8---8--8--8-8---8---8--8--8---------------------------------|
|---------------------------------8---8---8--8--8-8---8---8--8--8-| X2


|-----------------------------------------------------------------|
|-----------------------------------------------------------------|
|-6---6---6--6--6-6---6---6--6--6---------------------------------|
|---------------------------------6---6---6--6--6-6---6---6--6--6-|

|-----------------------------------------------------------------|
|-----------------------------------------------------------------|
|-----------------------------------------------------------------|
|-8---8---8--8--8-8---8---8--8--8-8---8---8--8--8-8---8---8--8--8-|

|-------------------------------------------------------------------------------------|
|-10---10---10--10--10-10---10---10--10--10-10---10---10--10--10-10---10---10--10--10-|
|-------------------------------------------------------------------------------------|
|-------------------------------------------------------------------------------------|
Solo:

|--------------------------------------------------------------------------------------|
|--------------------------------------------------------------------------------------|
|-11---11---11--11--11-11---11---11--11--11-11---11---11--11--11-11---11---11-11-11-11-|
|--------------------------------------------------------------------------------------|

|-----------------------------------------------------------------|
|-----------------------------------------------------------------|
|-6---6---6--6--6-6---6---6--6--6-6---6---6--6--6-6---6---6--6--6-|
|-----------------------------------------------------------------|

|-----------------------------------------------------------------|
|-----------------------------------------------------------------|
|-9---9---9--9--9-9---9---9--9--9-9---9---9--9--9-9---9---9--9--9-|
|-----------------------------------------------------------------|

|-----------------------------------------------------------------|
|-----------------------------------------------------------------|
|-----------------------------------------------------------------|
|-9---9---9--9--9-9---9---9--9--9-9---9---9--9--9-9---9---9--9--9-| X2

|--------------------------------------------------------------------------------------|
|--------------------------------------------------------------------------------------|
|-11---11---11--11--11-11---11---11--11--11-11---11---11--11--11-11---11---11-11-11-11-|
|--------------------------------------------------------------------------------------|

|-----------------------------------------------------------------|
|-----------------------------------------------------------------|
|-9---9---9--9--9-9---9---9--9--9-9---9---9--9--9-9---9---9--9--9-|
|-----------------------------------------------------------------|

|-----------------------------------------------------------------|
|-----------------------------------------------------------------|
|-----------------------------------------------------------------|
|-9---9---9--9--9-9---9---9--9--9-9---9---9--9--9-9---9---9--9--9-|

|--------------------------------------------------------------------|
|--------------------------------------------------------------------|
|-6---6---6--6--6-6---6---6--6--6-6---6---6--6--6-6---6---6--6--6/11-|
|--------------------------------------------------------------------|

Verse:

No bass for a few bars.

"Wherever you run I'll be on your tail"

|--------------------------------------------------------------------|
|--------------------------------------------------------------------|
|--------------------------------------------------------------------|
|-16/8---8---8--8--8-8---8---8--8--8-8---8---8--8--8-8---8---8--8--8-|

"Wherever you're hiding behind your veil"

|-----------------------------------------------------------------|
|-----------------------------------------------------------------|
|-6---6---6--6--6-6---6---6--6--6-6---6---6--6--6-6---6---6--6--6-|
|-----------------------------------------------------------------|

Chorus:

"I'll find you"

|-----------------------------------------------------------------|
|-----------------------------------------------------------------|
|-8---8---8--8--8-8---8---8--8--8---------------------------------|
|---------------------------------8---8---8--8--8-8---8---8--8--8-| X2


|-----------------------------------------------------------------|
|-----------------------------------------------------------------|
|-6---6---6--6--6-6---6---6--6--6---------------------------------|
|---------------------------------6---6---6--6--6-6---6---6--6--6-|

|-----------------------------------------------------------------|
|-----------------------------------------------------------------|
|-8---8---8--8--8-8---8---8--8--8---------------------------------|
|---------------------------------8---8---8--8--8-8---8---8--8--8-| X2


|-----------------------------------------------------------------|
|-----------------------------------------------------------------|
|-6---6---6--6--6-6---6---6--6--6---------------------------------|
|---------------------------------6---6---6--6--6-6---6---6--6--6-|

|-----------------------------------------------------------------|
|-----------------------------------------------------------------|
|-----------------------------------------------------------------|
|-8---8---8--8--8-8---8---8--8--8-8---8---8--8--8-8---8---8--8--8-|

Repeat till end:

|-----------------------------------------------------------------|
|-----------------------------------------------------------------|
|-----------------------------------------------------------------|
|-8---8---8--8--8-8---8---8--8--8-8---8---8--8--8-8---8---8--8--8-|
Suggest correction
Creating personal tab
Creating personal tab
You can edit any tab online and save it as your Personal.

You can edit, replace or remove any tab part or add personal notes – all changes will be seen only by you.

Personal tabs can be accessed anytime from any device, even offline.
Learn more »
Give kudos to tab author, rate the tab!
1 2 3 4 5
comments
print report bad tab
guest
You may want to rate the tab now too:
select rating
Wanna post a correction for this tab? Suggest correction