Oops, an error
Loading. Please wait.

Listen Up Acoustic solo tab

646 views 12 this week
no commentswrite comment
1 2 3 4 5
3 more votes to show rating
add to favorites
×
Save as Personal and add changes to this tab that will be seen only by you. Learn more ›
×
You can save this tab as Personal to edit and correct it or add notes. All changes will be seen only by you. Learn more »
launch autoscroll
font size
0
reset
how to read this tab
guitar tuner
edit
Autoscroll
slow
fast
+/-
esc
set tempo
stop
Author
Difficulty
------------------------------------------------------------------------------------------------
                             Listen Up Acoustic *Solo* - Noel Gallagher 
-------------------------------------------------------------------------------------------------
Tabbed by: bapoasis

Tuning: standard tuning / no capo

Hey,
that´s my first Tab; it belongs to the acoustic version of the Oasis B-Side "Listen Up". Noel is playing the
acoustic guitar and the tabbed lines are played by Gem on the electric guitar (minimal echo). You can see this
version during the BBC Radio2 acoustic-set, recorded in December 2015.
Hope you like it!!



"said that I don't mind being on my own"...

e|-12------------------12------------------12-----------------12----------------------------|
B|----14-12-14-12---------14-12-14-12---------14-12-14-12--------14-12-14-12----------------|
G|----------------14~------------------14~------------------14~----------------14~----------|
D|------------------------------------------------------------------------------------------|
A|------------------------------------------------------------------------------------------|
E|------------------------------------------------------------------------------------------|

e|------------------------------------------------------------------------------------------|
B|-------------12~-14-12-14b15-12-----------------------12~-14-12-14b15-12------------------|
G|-11~~--11/14---------------------14~---14--11~~-11/14---------------------14~~~-----------|
D|------------------------------------------------------------------------------------------|
A|------------------------------------------------------------------------------------------|
E|------------------------------------------------------------------------------------------|

e|------------------------------------------------------------------------------------------|
B|----12-----12b14-br-10----10~----12-----12b14-br-10----10~----12-----12b14-br-10----10~---|
G|-14----14--------------11-----14----14--------------11-----14----14--------------11-------|
D|------------------------------------------------------------------------------------------|
A|------------------------------------------------------------------------------------------|
E|------------------------------------------------------------------------------------------|

e|------------------------------------------------------------------------------------------|
B|----12--------------10~------10~------10~--10/12~/14~~------------------------------------|
G|-14----14------9h11----9h11-----9h11------------------------------------------------------|
D|------------------------------------------------------------------------------------------|
A|------------------------------------------------------------------------------------------|
E|------------------------------------------------------------------------------------------|

                                                                "but I'm sailing down a river alone"...

************************************

| /   slide up
| \   slide down
| h   hammer-on
| p   pull-off
| ~   vibrato
| +   harmonic
| x   Mute note
| b   Bend
| pb  Pre-bend
| br  Bend release
| pbr Pre-bend release
| brb Bend release bend

************************************
Suggest correction
Creating personal tab
Creating personal tab
You can edit any tab online and save it as your Personal.

You can edit, replace or remove any tab part or add personal notes – all changes will be seen only by you.

Personal tabs can be accessed anytime from any device, even offline.
Learn more »
Give kudos to tab author, rate the tab!
1 2 3 4 5
comments
print report bad tab
guest
You may want to rate the tab now too:
select rating
Wanna post a correction for this tab? Suggest correction