Oops, an error
Loading. Please wait.

While The Song Remains The Same Bass Tab

19 views 3 this week
no commentswrite comment
1 2 3 4 5
3 more votes to show rating
add to favorites
launch autoscroll
font size
0
reset
guitar tuner
Autoscroll
slow
fast
+/-
esc
set tempo
stop
Help us to improve Ultimate-Guitar.com Take our survey!
×
Author
Difficulty
novice
Title: While The Song Remains The Same
Artist: Noel Gallagher's High Flying Birds
Tempo = 112
Electric Bass played with pick


[Intro]

   1  + 2 + 3 + 4 +   1  + 2 + 3 + 4 +  1 + 2 + 3 + 4 +  1 + 2 + 3 + 4 +
G|-------------------|-----------------|----------------|-----------------|
D|--------------8----|-------------8---|----------------|-----------------|
A|-10\------8-10--10-|10\------8-10----|6---6---6-6---6-|----6---6-6------|
E|------3------------|-----3-----------|-------6----6---|-------6----6----|(x2)

[Verse 1]

   1  + 2 + 3 + 4 +   1  + 2 + 3 + 4 +  1 + 2 + 3 + 4 +  1 + 2 + 3 + 4 +
G|-------------------|-----------------|----------------|-----------------|
D|--------------8----|-------------8---|----------------|-----------------|
A|-10\------8-10--10-|10\------8-10----|6---6---6-6---6-|----6---6-6------|
E|------3------------|-----3-----------|-------6----6---|-------6----6----|(x4)

[Chorus]

   1 + 2 + 3 + 4 +  1 + 2 + 3 + 4 +  1 + 2 + 3 + 4 +  1 + 2 + 3 + 4 +
G|-----------------|----------------|----------------|----------------|
D|-----------------|----------------|----------------|----------------|
A|-----------------|8---8---8---8---|3---3---3---3---|3---3---3---3-5-|
E|-1---1---1---1---|----------------|----------------|----------------|

   1 + 2 + 3 + 4 +  1 + 2 + 3 + 4 +  1 + 2 + 3 + 4 +  1 + 2 + 3 + 4 +
G|-----------------|----------------|----------------|----------------|
D|-----------------|----------------|----------------|----------------|
A|-6---6---6---6---|6---6---6-6-6---|3---3---3---3-5-|6---6---6-6-6-6-|
E|-----------------|----------------|----------------|----------------|

[Interlude]

   1  + 2 + 3 + 4 +   1  + 2 + 3 + 4 +  1 + 2 + 3 + 4 +  1 + 2 + 3 + 4 +
G|-------------------|-----------------|----------------|-----------------|
D|--------------8----|-------------8---|----------------|-----------------|
A|-10\------8-10--10-|10\------8-10----|6---6---6-6---6-|----6---6-6------|
E|------3------------|-----3-----------|-------6----6---|-------6----6----|(x2)

[Verse 2]

   1  + 2 + 3 + 4 +   1  + 2 + 3 + 4 +  1 + 2 + 3 + 4 +  1 + 2 + 3 + 4 +
G|-------------------|-----------------|----------------|-----------------|
D|--------------8----|-------------8---|----------------|-----------------|
A|-10\------8-10--10-|10\------8-10----|6---6---6-6---6-|----6---6-6------|
E|------3------------|-----3-----------|-------6----6---|-------6----6----|(x4)

[Chorus]

   1 + 2 + 3 + 4 +  1 + 2 + 3 + 4 +  1 + 2 + 3 + 4 +  1 + 2 + 3 + 4 +
G|-----------------|----------------|----------------|----------------|
D|-----------------|----------------|----------------|----------------|
A|-----------------|8---8---8---8---|3---3---3---3---|3---3---3---3-5-|
E|-1---1---1---1---|----------------|----------------|----------------|

   1 + 2 + 3 + 4 +  1 + 2 + 3 + 4 +  1 + 2 + 3 + 4 +  1 + 2 + 3 + 4 +
G|-----------------|----------------|----------------|----------------|
D|-----------------|----------------|----------------|----------------|
A|-6---6---6---6---|6---6---6-6-6---|3---3---3---3-5-|6---6---6-6-6-6-|
E|-----------------|----------------|----------------|----------------|

[Bridge]

   1  + 2 + 3 + 4 +  1 + 2 + 3 + 4 +  1 + 2 + 3 + 4 +  1 + 2 + 3 + 4 +
G|------------------|----------------|----------------|----------------|
D|------------------|----------------|----------------|----------------|
A|-10---------------|----------------|----------------|----------------|
E|------------------|----------------|----------------|----------------|

   1  + 2 + 3 + 4 +  1 + 2 + 3 + 4 +  1 + 2 + 3 + 4 +  1 + 2 + 3 + 4  +
G|------------------|----------------|----------------|-----------------|
D|------------------|----------------|----------------|-----------------|
A|-10---------------|----------------|----------------|------------15\--|
E|------------------|----------------|----------------|-----------------|

   1 + 2 + 3 + 4 +  1 + 2 + 3 + 4 +  1 + 2 + 3 + 4 +  1 + 2 + 3 + 4 +
G|-----------------|----------------|----------------|-----------------|
D|-----------------|----------------|----------------|-----------------|
A|-6---6---6---6---|6---6---6-6-6---|8---8---8-8-8---|8---8---8-8-8-10-|
E|-----------------|-------6--------|-------8------8-|-------8---------|

   1 + 2 + 3 + 4 +  1 + 2 + 3 + 4 +  1 + 2 + 3 + 4 +  1 + 2 + 3 + 4 +
G|-----------------|----------------|----------------|----------------|
D|-----------------|----------------|----------------|----------------|
A|-3---3---3---3---|3---3---3---3-5-|6---6---6---6-7-|8---8---8-8-8---|
E|-----------------|-------3--------|----------------|-------8------8-|

   1  + 2 + 3 + 4 +   1  + 2 + 3 + 4 +  1 + 2 + 3 + 4 +  1 + 2 + 3 + 4 +
G|-------------------|-----------------|----------------|-----------------|
D|--------------8----|-------------8---|----------------|-----------------|
A|-10\------8-10--10-|10\------8-10----|6---6---6-6---6-|----6---6-6------|
E|------3------------|-----3-----------|-------6----6---|-------6----6----|

   1  + 2 + 3 + 4 +   1  + 2 + 3 + 4 +  1 + 2 + 3 + 4 +  1 + 2 + 3 + 4 +
G|-------------------|-----------------|----------------|-----------------|
D|--------------8----|-------------8---|----------------|-----------------|
A|-10\------8-10--10-|10\------8-10----|6---6---6-6---6-|----6---6-6------|
E|------3------------|-----3-----------|-------6----6---|-------6----6----|


[Outro]

   1 + 2 + 3 + 4 +  1 + 2 + 3 + 4 +  1 + 2 + 3 + 4 +  1 + 2 + 3 + 4 +
G|-----------------|----------------|----------------|----------------|
D|-----------------|----------------|----------------|----------------|
A|-----------------|----------------|----------------|----------------|
E|-3---------------|----------------|----------------|----------------|


   1 + 2 + 3 + 4 +  1 + 2 + 3 + 4 +  1 + 2 + 3 + 4 +  1 + 2 + 3 + 4 +
G|-----------------|----------------|----------------|----------------|
D|-----------------|----------------|----------------|----------------|
A|-----------------|----------------|6---------------|----------------|
E|-3---------------|----------------|----------------|----------------|

************************************

| \ Slide down

************************************
Suggest correction
Give kudos to tab author, rate the tab!
1 2 3 4 5
comments
print report bad tab
guest
You may want to rate the tab now too:
select rating
Wanna post a correction for this tab? Suggest correction