Oops, an error
Loading. Please wait.

You Know We Cant Go Back Bass Tab

19 views 1 this week
no commentswrite comment
1 2 3 4 5
3 more votes to show rating
add to favorites
launch autoscroll
font size
0
reset
guitar tuner
Autoscroll
slow
fast
+/-
esc
set tempo
stop
Help us to improve Ultimate-Guitar.com Take our survey!
×
Author
Difficulty
novice
[Intro]
G|-------------|
D|-------------|
A|-1/4~~~1~4~~~|
E|-------------|

             (x2)
G|-------------------------------------|
D|-----------444-4444---88-888-888-888-|
A|-1/44-444----------------------------|
E|-------------------------------------|


[Verse]  (x4)
G|-----------------------------------|
D|---------444-4444------------------|
A|-44-444----------------------------|
E|-------------------66-666-666-666--|


[Pre Chorus]
G|---------------------------------|
D|---------------------------------|
A|-66-6666---------66-6666---------|
E|---------66-6666---------66-6666-|

I'll drag you.....
G|------------------------------------------------|
D|-44-444-----------------11~--(1111111111111111)-|
A|--------444-444-66-666\-9-~---9-9-9-9-9-9-9-9---|
E|------------------------------------------------|


[Chorus]
G|------------------------------------|
D|---------666-6666----------444-4444-|
A|-44-444-----------66-666------------|
E|------------------------------------|

G|-------------------------------------|
D|---------666-6666---------4~------4~-|
A|-44-444-----------66-666------6~-----|
E|-------------------------------------|


[Solo]
           (x3)                                       
G|------------------|
D|-------6\444-4444-|
A|------------------|
E|-6-6-6------------|

G|--------------------------|
D|--------44444444-44444444-|
A|-666-66-------------------|
E|--------------------------|


Final Chorus (x4)
G|------------------------------------|
D|---------666-6666----------444-4444-|
A|-44-444------------66-666-----------|
E|------------------------------------|

[Outro]
           (x3)                                       
G|------------------|
D|-------6\444-4444-|
A|------------------|
E|-6-6-6------------|

G|------------|
D|--------4~~~|
A|-66-666-----|
E|------------|

[Intro]
[Verse]
[Pre Chorus]
[Chorus]
[Verse]
[Pre Chorus]
[Chorus]
[Solo]
[Final Chorus]
[Outro]
Suggest correction
Give kudos to tab author, rate the tab!
1 2 3 4 5
comments
print report bad tab
guest
You may want to rate the tab now too:
select rating
Wanna post a correction for this tab? Suggest correction