Oops, an error
Loading. Please wait.

Con Las Letras La Luz tab

44 views 1 this week
no commentswrite comment
1 2 3 4 5
3 more votes to show rating
add to favorites
×
Save as Personal and add changes to this tab that will be seen only by you. Learn more ›
×
You can save this tab as Personal to edit and correct it or add notes. All changes will be seen only by you. Learn more »
launch autoscroll
font size
0
reset
how to read this tab
guitar tuner
edit
Autoscroll
slow
fast
+/-
esc
set tempo
stop
[1]
   C       D         Bb          C
e|-----0-3-2-------|-----0-1-0---0-------|
B|---1-1-1-3-------|---3-3-3-3-3-1-1-----|
G|---0-0-0-2-------|---3-3-3-3-3-0-0---0-|
D|---2-----0-------|---3-------3---2---2-|
A|-3-------------0-|-1-------0---3-------|
D|-----------------|-----------------3---|

[2]
   C        F                           C
e|-----0-3---------------|--8--8------------8----|
B|---1-1-1-10---------10-|-10-10-10-----8---8----|
G|---0-0-0-10-10---10-10-|-10-10-10-10--9---9----|
D|---2-----10-10---10-10-|----------10-10--------|
A|-3--------8------------|--8-----------------10-|
D|---------------8-------|--------------8--------|

              G            Bb      C
e|----------8-3----------|-1-1-0---0-------|
B|---------8--3--------3-|-3-3-3-3-1-1-----|
G|--------9---4-4---4--4-|-3-3-3-3-0-0---0-|
D|------10------5---5--5-|-------3---2---2-|
A|----10----------5------|-1---0---3-------|
D|-8----------3----------|-------------3---|

Introducción: [1] [1] [2]

[1]C            D  Bb                  C
    Había que herir de muerte a la ignorancia,
[1]C         D   Bb            C
    sombra feroz, veneno del pasado,
        B                       Em
abrirle brecha, camino a las verdades,
A                 Dm   G7               C  G7
 y hacer a las ciudades abrazarse a los campos.

[1]C          D Bb                C
    Había que ir cambiando las distancias,
[1]C           D     Bb                C
    sembrar de letras todo nuestro horizonte,
       B                Em
para poder matar a la miseria
A               Dm         G7         C
 con el arma de guerra del lápiz compañero,
       B                Em
para poder salir del agujero,
A                Dm   G7               C        Bb C
 y descorrer los velos para asumir las ciencias.

Cm               Gm
Patria, mira tus hijos, cómo van,
Bbm                              Fm              F
   míralos subir cuestas, cruzar ríos, cómo van,
Bb                            Db
  míralos ensancharse el sentimiento, cómo van,
           Ab                              G
se hacen maestros, y adonde haya que ir se van.

[1]C           D  Bb            C
   Fueron cien mil palomas mensajeras,
[1]C           D  Bb             C
   fueron cien mil faroles en la noche,
            B                      Em
fueron cien mil que enseñando aprendieron
           A         Dm          G7        C
a amar aún más el verdadero valor de su bandera,
            B                  Em
fueron cien mil, ganaron la partida,
     A           Dm               G7      C     Bb F C
y cargaron sus mochilas de una conciencia nueva.

            
            
Suggest correction
Creating personal tab
Creating personal tab
You can edit any tab online and save it as your Personal.

You can edit, replace or remove any tab part or add personal notes – all changes will be seen only by you.

Personal tabs can be accessed anytime from any device, even offline.
Learn more »
Give kudos to tab author, rate the tab!
1 2 3 4 5
comments
print report bad tab
guest
Wanna post a correction for this tab? Suggest correction