Oops, an error
Loading. Please wait.

A Un Minuto Del Sol tab

43 views 1 this week
no commentswrite comment
1 2 3 4 5
3 more votes to show rating
add to favorites
×
Save as Personal and add changes to this tab that will be seen only by you. Learn more ›
×
You can save this tab as Personal to edit and correct it or add notes. All changes will be seen only by you. Learn more »
launch autoscroll
font size
0
reset
how to read this tab
guitar tuner
edit
Autoscroll
slow
fast
+/-
esc
set tempo
stop

C     G       Am      F
En la cuerda de la vida
C      G     Am      F
Paso a paso, día a día
C        G       F
Yo me arriesgo a caminar
      Bb                   G
Si tu amor me quiere acompañar

C         G       Am       F
Frente al mundo, cruzo el cielo
C        G       Am    F
Estás conmigo en cada vuelo
C      G      F
En tu red podré confiar
          Bb                G
Siempre a salvo de la gravedad

F     G           Am G  F
Subo lento sin mirar atrás
Dm                  F
No me rindo, no me caigo,
      G
No te vas

CORO
C  G  Am       F      C
Todo, todo por este amor
    G  Am       F
(Todo, todo por este amor)
C  G  Am        F     D
Libre junto a tu corazón
  F
A un minuto del sol

C G Am x2 (mientras hace estos acordes, hace un
           Punteo que es el siguiente)


   C       G      Am (PUSE LOS ACORDES PARA GUIA)
e|-----------------------------|
B|-----------------------------|
G|---7b9-9b7--7-4h5------------|  x2
D|-----------------------------|
A|-----------------------------|
E|-----------------------------|

C     G      Am   F
Tú me dás el equilibrio
C      G      Am      F
Lo imposible no es martírio
C      G       F
Que pequeño es el dolor
      Bb               G
Si lo vemos sin ningún temor
F     G           Am G  F
Subo lento sin mirar atrás

Dm
Viajo por el aire
        F                 G
Y me recuesto sobre la ciudad

CORO
C  G  Am       F      C
Todo, todo por este amor
    G  Am       F
(Todo, todo por este amor)
C  G  Am        F     D
Libre junto a tu corazón
F       G
A un minuto del sol


C  G  Am       F      C
Todo, todo por este amor
    G  Am       F
(Todo, todo por este amor)
C  G  Am        F     D
Libre junto a tu corazón
  F
A un minuto del sol

C       Dsus4          G
Yo me detengo en la mitad (del abismo)
F#        Bm              A      A Bb B
Puedo aceptar lo que he vivido.. contigo

INTERMEDIO (de nuevo puse los acordes con que se
            Acompaña el requinto)
C G Am F x2
C G F Bb G

  C              G        Am          F
e|--------------------------------------|
B|--12b13-13-13b12/10/8-8h10--5-5-------|
G|--------------------------------------|
D|--------------------------------------|
A|--------------------------------------|
E|--------------------------------------|
  C              G         Am          F
e|--------------------------------------|
B|--12b13-13-13b12/10/8-8h10------------|
G|--------------------------------------|
D|--------------------------------------|
A|--------------------------------------|
E|--------------------------------------|
  C              G         F
e|---12b13-13-13b12/10/7-7h8------------|
B|----------------------------10-10-----|
G|--------------------------------------|
D|--------------------------------------|
A|--------------------------------------|
E|--------------------------------------|
       Bb    G
e|-----10----12-------------------------|
B|--10/11-11/12-------------------------|
G|--------------------------------------|
D|--------------------------------------|
A|--------------------------------------|
E|--------------------------------------|

CORO
C  G  Am       F      C
Todo, todo por este amor
    G  Am       F
(Todo, todo por este amor)
C  G  Am        F     D
Libre junto a tu corazón
F       G
A un minuto del sol


C  G  Am       F      C
Todo, todo por este amor
    G  Am       F
(Todo, todo por este amor)
C  G  Am        F     D
Libre junto a tu corazón
  F               C  Dm  F
A un minuto del sol

DE AQUÍ EN ADELANTE SE REPITE LOS
ACORDES DEL CORO.

Eso es todo, comentarios, sugerencias o agradecimientos
A mi correo, gio_007@
Suggest correction
Creating personal tab
Creating personal tab
You can edit any tab online and save it as your Personal.

You can edit, replace or remove any tab part or add personal notes – all changes will be seen only by you.

Personal tabs can be accessed anytime from any device, even offline.
Learn more »
Give kudos to tab author, rate the tab!
1 2 3 4 5
comments
print report bad tab
guest
Wanna post a correction for this tab? Suggest correction