Oops, an error
Loading. Please wait.

Gracias Por Entrar tab

35 views 1 this week
no commentswrite comment
1 2 3 4 5
3 more votes to show rating
add to favorites
×
Save as Personal and add changes to this tab that will be seen only by you. Learn more ›
×
You can save this tab as Personal to edit and correct it or add notes. All changes will be seen only by you. Learn more »
launch autoscroll
font size
0
reset
how to read this tab
guitar tuner
edit
Autoscroll
slow
fast
+/-
esc
set tempo
stop
  MI                            SI

E------------------------------------------------|
A------------------------------------------------|
D------------------------------------------------|
g-9h11-11s13-11h13----13-------------------------|
b------------------------12-14-12h14----14s16-12-|
e------------------------------------------------|

   LA                   SI

E----------------------------------------|
A----------------------------------------|
D-13s14----------------------------------|
g-13s14-13-11-9h11-----9h11-9------------|
b-------------------------------12s14-12-|
e----------------------------------------|


MI                   SI
Tú, la misma siempre tú
    FA#m               MI
amistad, ternura qué sé yo
LA                     SOL#m
tú, mi sombra has sido tú
                   FA#m
la historia de un amor
            SI
que no fue nada

MI                 SI
Tú, mi eternamente tú
     FA#m                  MI
un hotel, tu cuerpo y un adios
LA                  SOL#m
tú, mi oculta amiga tú
               FA#m
un golpe de pasión
         SI
amor de madrugada


Pre-Coro

DO#m                    SOL#m
No existe un lazo entre tú y yo
FA#m
nada de amores
SI
nada de nada


Coro

MI               SI
Tú, la misma de ayer
             LA
la incondicional
            SI
la que no espera nada
MI               SI
tú, la misma de ayer
               LA
la que no supe amar
          SI
no sé por qué
  MI                            SI

E------------------------------------------------|
A------------------------------------------------|
D------------------------------------------------|
g-9h11-11s13-11h13----13-------------------------|
b------------------------12-14-12h14----14s16-12-|
e------------------------------------------------|

   LA                   SI

E----------------------------------------|
A----------------------------------------|
D-13s14----------------------------------|
g-13s14-13-11-9h11-----9h11-9------------|
b-------------------------------12s14-12-|
e----------------------------------------|

MI               SI
Tú, intensamente tú
     FA#m              MI
soledad, cariño yo qué sé
LA                  SOL#m
tú, mis horas bajas tú
               FA#m
un cuerpo de mujer
          SI
un par de rosas blancas


Pre-Coro

DO#m                    SOL#m
No existe un lazo entre tú y yo
FA#m
no hubo promesas
SI
ni juramentos
DO#
nada de nada.


Coro

FA#               DO#
Tú, la misma de ayer
             SI
la incondicional
            DO#
la que no espera nada
FA#               DO#
tú, la misma de ayer
               SI
la que no supe amar
          DO#             FA#
no sé por qué..eeeeeeeeeeeeee

FA#     DO#                        SI                         DO#
E----------------------------------------------------------------------------|
A----------------------------------------------------------------------------|
D----------------------------------------------------------------------------|
g-11----------11----------------------11------9-11---------------------------|
b-10h12-12p10----10-12-10h12p10-10-12----12-9------9-10-12-14-12h14-14s16-12-|
e----------------------------------------------------------------------------|
                                                         este pedazo de tab no
Do#                                                      estoy seguro el 100%.
amiga
FA#              DO#
tu, la misma de ayer
               SI               DO#
la que no supe amar... aaaaaaaaaaar
     FA#
solo tu
            DO#
E------------------------|
A------------------------|
D------------------------|
g-11h13------------------|
b-------14-12h14----12---|
e----------------11------|
     SI     DO#       FA#
Solo TuuuUuuUuu.... UUuuuu


Espero y les sirva y les haya gusta mi trabajo GRACIAS

By: Raul' Jimenez

            
            
Suggest correction
Creating personal tab
Creating personal tab
You can edit any tab online and save it as your Personal.

You can edit, replace or remove any tab part or add personal notes – all changes will be seen only by you.

Personal tabs can be accessed anytime from any device, even offline.
Learn more »
Give kudos to tab author, rate the tab!
1 2 3 4 5
comments
print report bad tab
guest
Wanna post a correction for this tab? Suggest correction