Oops, an error
Loading. Please wait.

Adivina tab

772 views 1 this week
no commentswrite comment
1 2 3 4 5
3 more votes to show rating
add to favorites
×
Save as Personal and add changes to this tab that will be seen only by you. Learn more ›
×
You can save this tab as Personal to edit and correct it or add notes. All changes will be seen only by you. Learn more »
launch autoscroll
font size
0
reset
how to read this tab
guitar tuner
edit
Autoscroll
slow
fast
+/-
esc
set tempo
stop
Intro:

e|---------0---------------0--------|
B|-----0-----0---------0-----0------|
G|---2---2-----2-----2---2-----2----|
D|---------------2---------------2--|
A|-0---------------0----------------|
E|----------------------------------|

Lo siguiente se toca con el primer verso.

   A            Bm     Bm7
e|-----0---0---0---2---2---2---2----|
B|-----2---2---2---3---3---3---3----|
G|---2---2---2---2---4---4---4---4--|
D|----------------------------------|
A|-0--------------------------------|
E|----------------------------------|

   E     E7     A
e|-0---0---0---0-----------0--|
B|-0---0---3---3-------0------|
G|---1---1---1---1---2---0----|
D|----------------------------|
A|----------------------------|
E|-----------------0----------|

    A                      Bm     Bm7
Adivina quien se muere por ti
             E
te daré una pista
 E7          A
se parece a mí.

    A*         A            Bm     Bm7
Adivina quién se atreve a soñarte
              E
y esta tan reloco
       E7          A      A7
que quiere conquistarte.

              D                      E
Tal vez lo conozcas si te cuento un poco
             A                   F#m
es muy buena onda y le gustan tus ojos
           Bm7                 E
es un caballero, formal y discreto
             D                     E
pero si tú quieres te falta al respeto.

    A
Adivina quien piensa que tú eres
     Bm
la mejor de todas las mujeres
    D
adivina quién se hace ilusiones
              E      E7
tan solo con verte.

           A
Quien se cruza en todas las esquinas
      Bm
para ver si volteas y lo miras
       D
y si acaso tuvieras un precio
                E
hasta te compraría.

         D                  E
Enserio piensas que soy yo
                  A
que comes que adivinas.

       A                    Bm
e|-------------------------------------------------|
B|-5-5-5h7-5-5-5-5---5-----/5-5-5------------------|
G|-----------------6---6----------7-7-7-7-7-6-6-4--|
D|-------------------------------------------------|
A|-------------------------------------------------|
E|-------------------------------------------------|

        D                        E
e|---------------------------------------|
B|-/5-5-5--------------------------------|
G|--------7-7-7-7-7-6-6-4---4-4-4-2-2/4--|
D|---------------------------------------|
A|---------------------------------------|
E|---------------------------------------|

      D              E            A
e|-7-7-7-5-5---5--7/9-7-----9-7----------------|
B|-----------7------------------10-7-10/12-10--|
G|------------------------9--------------------|
D|---------------------------------------------|
A|---------------------------------------------|
E|---------------------------------------------|

?Y adivina, quien te sueña todas las noches, chiquitita? (hablado)

    A*         A            Bm     Bm7
Adivina quién se atreve a soñarte
              E
y esta tan reloco
       E7          A      A7
que quiere conquistarte.

              D                      E
Tal vez lo conozcas si te cuento un poco
             A                   F#m
es muy buena onda y le gustan tus ojos
           Bm7                 E
es un caballero, formal y discreto
             D                     E
pero si tú quieres te falta al respeto.

    A
Adivina quien piensa que tú eres
     Bm
la mejor de todas las mujeres
    D
adivina quién se hace ilusiones
              E      E7
tan solo con verte.

           A
Quien se cruza en todas las esquinas
      Bm
para ver si volteas y lo miras
       D
y si acaso tuvieras un precio
                E
hasta te compraría.

         D                  E
Enserio piensas que soy yo
                  A
que comes que adivinas.

   A*
e|-0-|
B|-0-|
G|-2-|
D|-2-|
A|-0-|
E|-x-|

            
            
Suggest correction
Creating personal tab
Creating personal tab
You can edit any tab online and save it as your Personal.

You can edit, replace or remove any tab part or add personal notes – all changes will be seen only by you.

Personal tabs can be accessed anytime from any device, even offline.
Learn more »
Give kudos to tab author, rate the tab!
1 2 3 4 5
comments
print report bad tab
guest
Wanna post a correction for this tab? Suggest correction