Oops, an error
Loading. Please wait.

100 Times Fuckeder Bass Tab

version 1
version 1

Whole song

Interactive

by NOFX
2,526 views 12 this week
1 commentread comment
1 2 3 4 5
please rate
add to favorites
launch autoscroll
font size
0
reset
guitar tuner
Autoscroll
slow
fast
+/-
esc
set tempo
stop
Help us to improve Ultimate-Guitar.com Take our survey!
×
Author
Difficulty
novice
Intro
G|------|-----------------------------------|
D|------|-----------------------------------|  2x
A|------|-22222222--------------------0000--|
E|--7\0-|---------33333333000000002222------|

Verse
G|------------------------------------|
D|----004400--------222222224444------|  2x
A|--22--------------------------0000--|
E|----------33333333------------------|

G|------------------------------------|
D|------------------222222224444------|  2x
A|--22222222--------------------0000--|
E|----------33333333------------------|
   
Chorus
G|------------------------------------------------|
D|------------------------------------------------|
A|----------2---------------2---------------------|
E|--3---------------3---------------3---/15----0--|

G|------------------------------------|
D|--------------------------442200----|
A|--------------------------------44--|
E|--222222222222222222222222----------|

Pre-Verse
G|------------------------------------|
D|------------------------------------|  2x
A|--22222222--------------------0000--|
E|----------33333333000000002222------|

Verse
G|------------------------------------|
D|----004400--------222222224444------|  2x
A|--22--------------------------0000--|
E|----------33333333------------------|

G|------------------------------------|
D|------------------222222224444------|  2x
A|--22222222--------------------0000--|
E|----------33333333------------------|

Chorus
G|------------------------------------------------|
D|------------------------------------------------|
A|----------2------------------2------------------|
E|--3---------------3---/15------------3-------0--|

G|------------------------------------|
D|--------------------------442200----|
A|--------------------------------44--|
E|--222222222222222222222222----------|

Bridge
G|------------------------------------|
D|------------------------------------|
A|--22222222----------------00002222--|
E|----------3333333300000000----------|

G|------------------------------------|
D|----004400--------------------------|  2x
A|--22----------------------00002222--|
E|----------3333333300000000----------|

Outro
G|----------------------------|-----------------------------|----------------|
D|----------------------------|-----------0---0-------------|----------------|
A|--22222222------------------|--------------------4-----4--|--------2/14----|
E|----------3333333300000000--|--2-2-0--0-------------------|----------------|


Don't forget to use your guitar pick.
Suggest correction
Give kudos to tab author, rate the tab!
1 2 3 4 5
comments
print report bad tab
1 comment total.
0 reply
LoDennis 135 wrote on November 15 2007, 04:05 pm

Sorry, but here's a little mistake:
after the first chorus you have to play
this:
G|------------------------------------|
D|------------------44444444442200----|
A|-----------------------------
---44--|
E|--2222222222222222------------------|

guest
You may want to rate the tab now too:
select rating
Wanna post a correction for this tab? Suggest correction