Oops, an error
Loading. Please wait.

American Errorist tab

version 3
version 3

Whole song

Interactive

by NOFX
671 views 1 this week
no commentswrite comment
1 2 3 4 5
2 more votes to show rating
add to favorites
×
Save as Personal and add changes to this tab that will be seen only by you. Learn more ›
×
You can save this tab as Personal to edit and correct it or add notes. All changes will be seen only by you. Learn more »
launch autoscroll
font size
0
reset
how to read this tab
guitar tuner
edit
Autoscroll
slow
fast
+/-
esc
set tempo
stop
Band: Nofx
Album: The War on Errorism
Tabbed by: blink182_4_life
Song: American errorist ( I hate hate haters)
Intro
(Guitar 1)
e|--------------------------------------------------------------------------|
B|--------------------------------------------------------------------------|
G|---9--9-9-9-9-9-9-9--9--9-9-9-9-9-9-9-9--9--------------------------------|
D|---9--9-9-9-9-9-9-9--9--9-9-9-9-9-9-9-9--9--------------------------------|
A|---7--7-7-7-7-7-7-7--7--7-7-7-7-7-7-7-7--7--------------------------------|
E|--------------------------------------------------------------------------|
   Pm   .............     ...............
(Guitar 2)
e|--------------------------------------------------------------------------|
B|--------------------------------------------------------------------------|
G|--------------------------------------------------------------------------|
D|--------------------------------------------------------------------------|
A|--10--7-5-5-5-5--7--10--7-5-5-5-5--7-10--7-5-5-5-5--7---5--7-5--7-5---7---|
E|--------------------------------------------------------------------------|

Verse
e|--------------------------------------------------------------------------|
B|--------------------------------------------------------------------------|
G|--9---------5---------9--------5------------------------------------------|
D|--9---------5---------9--------5------------------------------------------|
A|--7---------3---------7--------3------------------------------------------|
E|--------------------------------------------------------------------------|

Chorus
e|--------------------------------------------------------------------------|
B|--------------------------------------------------------------------------|
G|--------------------------5-----------------------------------------------|
D|--5------5-------2--------5-----------------------------------------------|
A|--5------5-------2--------3-----------------------------------------------|
E|--3------2-------0--------------------------------------------------------|

Solo
e|-5-5-5--3-5-5/7/5-3--5-5-3-5-7--------5-5-5-3-5/7/5-3---------------------|
B|-------------------------------------------------------5-3-5--------------|
G|---------------------------------x2--------------------------3-5--------7-|
D|------------------------------------------------------------------7---7---|
A|--------------------------------------------------------------------5-----|
E|--------------------------------------------------------------------------|

I saw another tab like this but it didn't have the solo. but i think this is the right 
please leave good comments and rate. if u have any thing else to say email me at 
or Instant message me on aim. My screename is aliens are alive
Suggest correction
Creating personal tab
Creating personal tab
You can edit any tab online and save it as your Personal.

You can edit, replace or remove any tab part or add personal notes – all changes will be seen only by you.

Personal tabs can be accessed anytime from any device, even offline.
Learn more »
Give kudos to tab author, rate the tab!
1 2 3 4 5
comments
print report bad tab
guest
You may want to rate the tab now too:
select rating
Wanna post a correction for this tab? Suggest correction