Oops, an error
Loading. Please wait.

Anarchy Camp bass

version 1
version 1

Whole song

Interactive

by NOFX
5,121 views 1 this week
1 commentread comment
1 2 3 4 5
x 3
add to favorites
×
Save as Personal and add changes to this tab that will be seen only by you. Learn more ›
×
You can save this tab as Personal to edit and correct it or add notes. All changes will be seen only by you. Learn more »
launch autoscroll
font size
0
reset
guitar tuner
edit
Autoscroll
slow
fast
+/-
esc
set tempo
stop
Author
Song: Anarchy Camp 
Artist: NOFX
Album: War on Errorism   
Bassist: Fat Mike 
Tuning: Standard
Transcribed by: Ziggy
             
G|-------------------|   
D|---------------8---|   
A|-----------6---6---|   
E|---6---3-----------|   

G|--------------------------------------------------------------------|  
D|-------3-3-----3-3------------------------------------------4444444-|  
A|---1--1----1--1--------1-3-5---135-6--65-3--6665-3--6665-3----------|  
E|-------------------3--3-------3-------------------------------------|
                                           
G|-----------------------------------5--53----5553---5--53----5553---|  
D|-------3-3-----3-3-----3-3-----3-3-------5-------5-------5-------5-|  
A|---1--1----1--1----1--1----1--1------------------------------------|  
E|-------------------------------------------------------------------|

G|-------5-2-----5-2-----5-2-----5-2-|  
D|---3--3-----333----3--3-----333----|  
A|-----------------------------------|  
E|-----------------------------------|  

G|3--3-----3-3----2--2-----2-2---|--------------------5-5-----2-3-|
D|----3-------3-------3-------3--|5--5-----5-5----3--3-----3-3----|
A|------5-------5-------5-------5|----6-3-----6-3-----------------|
E|-------------------------------|--------------------------------|
                                                     
G|-------------------------------------------------------------------|  
D|-------3-3-----3-3------------------------------------------4444444|  
A|---1--1----1--1--------1-3-5---135-66665-3--6665-3--6665-3---------|  
E|-------------------3--3-------3------------------------------------|
                          
G|3--3-----333----2--2-----222---|--------------------2-2-----2-3-|
D|----3-------3-------3-------3--|5--5-----555----3--3-----3-3----|
A|------5-------5-------5-------5|----6-3-----6-3-----------------|
E|-------------------------------|--------------------------------|

G|----------------------------------------------------2-5-----2-5|--------|  
D|----3-3-----3-3----------------------------------333-----333---|--------|  
A|1--1----1--1--------1-3-5---135-6--65-3--6665-3----------------|1-------|
E|----------------3--3-------3-----------------------------------|--------|



            
            
Suggest correction
Creating personal tab
Creating personal tab
You can edit any tab online and save it as your Personal.

You can edit, replace or remove any tab part or add personal notes – all changes will be seen only by you.

Personal tabs can be accessed anytime from any device, even offline.
Learn more »
Give kudos to tab author, rate the tab!
1 2 3 4 5
comments
print report bad tab
1 comment total.
0 reply
james.richardso 10 Sep 08, 2015 09:58 AM

Clearly wrong. The tuning is totally wrong and sounds totally different to the recorded version of the song. Sounds right...but in the wrong key

guest
You may want to rate the tab now too:
select rating
Wanna post a correction for this tab? Suggest correction