Oops, an error
Loading. Please wait.

Bleeding Heart Disease bass

version 2
version 2

Whole song

Interactive

by NOFX
595 views 3 this week
no commentswrite comment
1 2 3 4 5
2 more votes to show rating
add to favorites
×
Save as Personal and add changes to this tab that will be seen only by you. Learn more ›
×
You can save this tab as Personal to edit and correct it or add notes. All changes will be seen only by you. Learn more »
launch autoscroll
font size
0
reset
guitar tuner
edit
Autoscroll
slow
fast
+/-
esc
set tempo
stop
Author
++++++++++++++++++++++++++++++++
| NOFX- Bleeding Heart Disease |
++++++++++++++++++++++++++++++++


"Pursuit the million dollar happiness..."


Tuning: Standard EADG


Intro
"How money po..."
1.
G|-------------------------------------------------------------|
D|-------------------------------------------------------------|
A|-2~-2~-2-2-22-2-4~-4~-4-4-44-4----------------2~-2~-2-2-22-2-|
E|-------------------------------0~-0~-0-0-00-0----------------|

"lluted my mind..."
2.
G|-------------------------------------------------------------|
D|-------------------------------------------------------------|
A|-2~-2~-2-2-22-2-4~-4~-4-4-44-4----------------2~-------------|
E|-------------------------------0~-0~-0-0-00-0----------------|

3.
G|-----------------------------|
D|-99-9-9-999-9-9-999-9-9-9-9\-|
A|-----------------------------|
E|-----------------------------|

Verse
"Dough, what our lives are lived for..."
4.
G|-------------------------------------------------------------------|
D|-------------------------------------------------------------------|
A|-22-2-2-222-211-1---------------------------------22-2-2-222-2-2-2-|--x2
E|-----------------44-4-4-444-422-2-00-0-0-033-3-3-3-----------------|

Pre-Chorus
"Dont forget the T..."
5.
G|------------------------------------------------------------------|
D|------------------------------------------------------------------|
A|-----------------22-2-2-211-1-1-100-0-0-0--------22-2-2-222-2-2-2-|
E|-44-4-4-400-0-0-0------------------------44-4-4-4-----------------|

"Of happiness the by product of..."
6.
G|-----------------------------------------------------------------------|
D|-----------------------------------------------------------------------|
A|-----------------22-2-2-211-1-1-100-0-0-0--------2~-----------------7\-|
E|-44-4-4-400-0-0-0------------------------44-4-4-4-----------------4----|

Chorus
"Doo do doo..."
7.
G|-----------------------------------------------------------------|
D|--------4-2-22~---------4-2-22~-------------22~---------4-2-22~--|
A|-2~-22~----------2~-22~----------2~-22~-0--------2~-22~----------|
E|------------------------------------------4----------------------|

Outro
"Today I saw a kid torture a cat..."
8.
G|------------------------------------------------------------------|
D|------------------------------------------------------------------|
A|-22-222-200-000-0----------------22-222-200-000-0-----------------|
E|-----------------44-444-433-333-3----------------44-444-433-333-3-|

9.
G|--------------------------------------|
D|-99-9-999-99-9-999-99-9-999-9x--------|
A|--------------------------------------|
E|--------------------------------------|

Verse
"How did the chain get started..."
10.
G|-------------------------------------------------------------------|
D|-------------------------------------------------------------------|
A|-22-2-2-222-211-1---------------------------------22-2-2-222-2-2-2-|--x2
E|-----------------44-4-4-444-422-2-00-0-0-033-3-3-3-----------------|

Pre-Chorus
"So dont expect the best..."
11.
G|------------------------------------------------------------------|
D|-------------------------------------------------99-9-9-999-9-9-9-|
A|---------77-7-7-722-2-2-211-1-1-100-0-0-0-------------------------|
E|-44-4-4-4--------------------------------44-4-4-4-----------------|

"Dont believe the fairy tales of..."
12.
G|------------------------------------------------------------------------------|
D|-----------------------------------------------------------9-99~\-------------|
A|---------77-7-7-722-2-2-211-1-1-100-0-0-0--------2~------------------------7\-|
E|-44-4-4-4--------------------------------44-4-4-4------------------------4----|

Chorus
"Pursuit the million dollar happiness..."
13.
G|-----------------------------------------------------------------|
D|--------4-2-22~---------4-2-22~-------------22~---------4-2-22~--|
A|-2~-22~----------2~-22~----------2~-22~-0--------2~-22~----------|
E|------------------------------------------4----------------------|

Verse
"Happiness was killed we watched it bleed..."
14.
G|------------------------------------------------------------------------------------|
D|--------------------------------------------------99-9-9-999-9-9-999-9-9-99x--------|
A|-22-2-2-222-211-1-------------------------------------------------------------------|
E|-----------------44-4-4-444-422-2-00-0-0-033-3-3-3----------------------------------|

Outro
"How money polluted my mind..."
15.
G|-------------------------------------------------------------|
D|-------------------------------------------------------------|
A|-2~-2~-2-2-22-2-4~-4~-4-4-44-4----------------2~-2~-2-2-22-2-|--x3
E|-------------------------------0~-0~-0-0-00-0----------------|

16.
G|-------------------------------------------------------------|
D|-------------------------------------------------------------|
A|-2~-2~-2-2-22-2-4~-4~-4-4-44-4----------------2~-------------|
E|-------------------------------0~----------------------------|


Please rate thank you!!


Lyrics:

How money polluted my mind

Dough, what our lives are lived for
Rae, just a crazy Aussie
Me, the generation forges on
Fo-dder, for corporations
Sew-ing, our lives together
LA such a nice place to get shot

But don't forget the "T"
It follows "liber" in the the constitution
Following the part about pursuit
Of happiness the by-product
Of colonial precious metal
Mine extracts, which
Brings us back to dough

Do do do do do do do

Today I saw a kid torture a cat
Too much leisure
Teenage Norman Rockwell
Paints it black!

How, did the chain get started
More, is what everyone wants
Needy, is what none of us are
Co-operation died last night
Ruptured bleeding heart forsight
Me, I'm just a loo

So don't expect the best
You won't be disappointed when you take a bite and watch
The worm crawl back inside
Don't believe the fairy tales of
Million dollar happiness
Los Angelesistic lifestyles Chardanay

Pursuit the million dollar Happiness 

Happiness was killed we watched it bleed,
Some say it died from hate,
Some say from bleeding heart disease



+++++++++++++++++++++++++++++++++
| RaiLeff                       |
| Underground__Dora@Hotmail.Com |
+++++++++++++++++++++++++++++++++

            
            
Suggest correction
Creating personal tab
Creating personal tab
You can edit any tab online and save it as your Personal.

You can edit, replace or remove any tab part or add personal notes – all changes will be seen only by you.

Personal tabs can be accessed anytime from any device, even offline.
Learn more »
Give kudos to tab author, rate the tab!
1 2 3 4 5
comments
print report bad tab
guest
You may want to rate the tab now too:
select rating
Wanna post a correction for this tab? Suggest correction