Oops, an error
Loading. Please wait.
We have an official Buggley Eyes tab made by UG professional guitarists. Check out the tab »
×
by NOFX
4,988 views 3 this week
2 commentsread comments
1 2 3 4 5
x 6
add to favorites
×
Save as Personal and add changes to this tab that will be seen only by you. Learn more ›
×
You can save this tab as Personal to edit and correct it or add notes. All changes will be seen only by you. Learn more »
launch autoscroll
font size
0
reset
how to read this tab
guitar tuner
edit
Autoscroll
slow
fast
+/-
esc
set tempo
stop
Submitted by Patrick Choi

Riff 1
e----0---0---0-0--------------------------------------------------
B----1---0---2-2--------------------------------------------------
G----0---1---0-0---------5---5------------------------------------
D--2-2-0-0-2-2-2---3--5--5-5-5------------------------------------
A--3---2---0-------3--5--3-5-3------------------------------------
E-----------------1--3-----3--------------------------------------


Riff 2
e----0-0---0-0---0-0----------------------------------------------
B----1-1---0-0---2-2----------------------------------------------
G----0-0---1-1---0-0----------------------------------------------
D--2-2-2-0-0-0-2-2-2-3-3-5-5--------------------------------------
A--3-----2-----0-----3-3-5-5--------------------------------------
E--------------------1-1-3-3--------------------------------------

Riff 3
e----0---0---0-0-----------------0---------0----------------------
B----1---0---2-2-----------------2-------2------------------------
G----0---1---0-0---------5-5-4-3-0-----0------------5---5---------
D--2-2-0-0-2-2-2---3---5-5-5-4-3-2---2---------3--5-5-5-5---------
A--3---2---0-------3---5-3-3-2-1-0-0-----------3--5-3-5-3---------
E----------------1---3-----------------------1---3----3-----------

Riff 1: x3
Rfff 2: x1
Riff 1: x3
Riff 2: x1
Riff 3: x1
Riff 2: x1
Riff 1: x1
Suggest correction
Creating personal tab
Creating personal tab
You can edit any tab online and save it as your Personal.

You can edit, replace or remove any tab part or add personal notes – all changes will be seen only by you.

Personal tabs can be accessed anytime from any device, even offline.
Learn more »
comments
print report bad tab
2 comments total.
0 reply
skater_matt 10 Sep 01, 2006 02:23 AM

pretty much spot on!!! nice work

0 reply
dankhus 247 Jul 03, 2007 05:16 AM

Perfectly nailed, except for the rhythm. The rhythm is all off...

guest
Wanna post a correction for this tab? Suggest correction